Offspring - Original Prankster Chords & Tabs

 

Original Prankster Chords & Tabs

Offspring Chords & Tabs

Version: 7 Type: Tab 0 ratings
1 star 2 stars 3 stars 4 stars 5 stars
comments

Original Prankster Tab

   
The Offspring    -    Original Prankster.
Tabbed by Dmitry Ivanov    Allsop@mail.ru.
 
The Offspring
Conspiracy of One
Original Prankster
Author: Dmitry Ivanov (Allsop@mail.ru)

pm - palm mute
\ - slide down
f - finger lift


the notes are spaces apart with the rhythm so it should help...

Intro 1:
---------
|-------------------------------------------------------------|
|-------------------------------------------------------------|
|-------------------------------------------------------------|
|---------------------------7---------------------------------|
|--------------------------------------------------------5----|
|-5-5-8-5-5---------5-5-8-5---5-8-5----------5-5-8-5-5--------|


|----------------------------------|
|----------------------------------|
|----------------------------------|
|---------7------------------------|
|---------------5---5-----5--------|
|-5-5-8-5---5-5---------8-----8----|


Intro 2:
-------------
Play 3 times:
|----------------------------------|
|----------------------------------|
|----------------------------------|
|---------7------------------------|
|-------------6-5---5-----5--------|
|-5-5-8-5---5-----------8-----8----|

and then...
|-----------------------|
|-----------------------|
|-----------------------|
|---------7-------------|
|-------------6-5-------|
|-5-5-8-5---5-----------|



Main Riff
-------------
Palm Mute, Play 3 times:
|----------------------------------|
|----------------------------------|
|----------------------------------|
|---------7------------------------|
|-------------6-5---5-----5--------|
|-5-5-8-5---5-----------8-----8----|


Bridge:
|----------------------------------|
|----------------------------------|
|-----------------9---9-9-9-9-9-9--|
|-5---5-5-5-5-5-5-9---9-9-9-9-9-9--|
|-5---5-5-5-5-5-5-7---7-7-7-7-7-7--|
|-3---3-3-3-3-3-3------------------|
     |____pm___|     |____pm_____|

Repeat Main Riff and Bridge...


Chorus:
-------------
Play 3 times: 
|----------------------------------|
|----------------------------------|
|---------9---8-7---7---5-7---5----|
|-7--10---9---8-7---7---5-7---5----|
|-7--10---7---6-5---5---3-5---3----|
|-5---8----------------------------|


Bridge:
|----------------------------------|
|----------------------------------|
|-----------------9---9-9-9-9-9-9--|
|-5---5-5-5-5-5-5-9---9-9-9-9-9-9--|
|-5---5-5-5-5-5-5-7---7-7-7-7-7-7--|
|-3---3-3-3-3-3-3------------------|
     |____pm_____|   |____pm_____|


Play 3 times:
|----------------------------------|
|----------------------------------|
|-------------------------12---12--|
|-7---7--7-7----12---12---12---12--|
|-7---7--7-7----12---12---10---10--|
|-5---5--5-5----10---10------------|
    f    

|-----------------------------------------|
|-----------------------------------------|
|-12---------12---------12-12-12-12-12-13-|
|-12---12----12---12----12-12-12-12-12-13-|
|-10---12----10---12----10-10-10-10-10-11-|
|------10---------10----------------------|
     f    f     f    f

Intro 2:
-------------
Play 3 times:
|----------------------------------|
|----------------------------------|
|----------------------------------|
|-7-------7------------------------|
|-7-----------6-5---5-----5--------|
|-5-5-8-5---5-----------8-----8----|

and then...
|-----------------------|
|-----------------------|
|-----------------------|
|---------7-------------|
|-------------6-5-------|
|-5-5-8-5---5-----------|

[ Tab from: http://www.guitartabs.cc/tabs/o/offspring/original_prankster_tab_ver_7.html ]
Main Riff
-------------
Palm Mute
Play 3 times:
|----------------------------------|
|----------------------------------|
|----------------------------------|
|---------7------------------------|
|-------------6-5---5-----5--------|
|-5-5-8-5---5-----------8-----8----|


Bridge:
|----------------------------------|
|----------------------------------|
|-----------------9---9-9-9-9-9-9--|
|-5---5-5-5-5-5-5-9---9-9-9-9-9-9--|
|-5---5-5-5-5-5-5-7---7-7-7-7-7-7--|
|-3---3-3-3-3-3-3------------------|
     |____pm___|     |____pm_____|

Repeat Main Riff and Bridge...


Chorus:
-------------
Play 3 times: 
|----------------------------------|
|----------------------------------|
|---------9---8-7---7---5-7---5----|
|-7--10---9---8-7---7---5-7---5----|
|-7--10---7---6-5---5---3-5---3----|
|-5---8----------------------------|


Bridge:
|----------------------------------|
|----------------------------------|
|-----------------9---9-9-9-9-9-9--|
|-5---5-5-5-5-5-5-9---9-9-9-9-9-9--|
|-5---5-5-5-5-5-5-7---7-7-7-7-7-7--|
|-3---3-3-3-3-3-3------------------|
     |____pm_____|   |_pm__|(ease off)


Play 3 times:
|----------------------------------|
|----------------------------------|
|-------------------------12---12--|
|-7---7---7-7---12---12---12---12--|
|-7---7---7-7---12---12---10---10--|
|-5---5---5-5---10---10------------|
    f

|-----------------------------------------|
|-----------------------------------------|
|-12---------12---------12-12-12-12-12-13-|
|-12---12----12---12----12-12-12-12-12-13-|
|-10---12----10---12----10-10-10-10-10-11-|
|------10---------10----------------------|

Intro 1*:
---------
|-------------------------------------------------------------|
|-------------------------------------------------------------|
|----------------------------------------13-------------------|
|---------------------------7---------------------------------|
|--------------------------------------------------------5----|
|-5-5-8-5-5---------5-5-8-5---5-8-5----------5-5-8-5-5--------|


|----------------------------------|
|----------------------------------|
|----------------------------------|
|---------7------------------------|
|---------------5---5-----5--------|
|-5-5-8-5---5-5---------8-----8----|
            |________pm________|  

Main Riff*:
Palm Mute, Play 4 times:
|----------------------------------|
|----------------------------------|
|----------------------------------|
|---------7------------------------|
|-------------6-5---5-----5--------|
|-5-5-8-5---5-----------8-----8----|

Intro 2*:
Play 3 times:
|----------------------------------|
|----------------------------------|
|----------------------------------|
|-7-------7------------------------|
|-7-----------6-5---5-----5--------|
|-5-5-8-5---5-----------8-----8----|

Bridge:
|--------------------|
|--------------------|
|-----------------9\-|
|-5---5-5-5-5-5-5-9\-|
|-5---5-5-5-5-5-5-7\-|
|-3---3-3-3-3-3-3----|
     |____pm___|     


And then the Chorus, subsituting the last riff with this:

|-------------------------------------------------------------|
|-------------------------------------------------------------|
|-12--------12----------12-------12-------12-12-12-12-12-13-7-|
|-12--12----12--12------12--12---12--12---12-12-12-12-12-13-7-|
|-10--12----10--12------10--12---10--12---10-10-10-10-10-11-5-|
|-----10--------10----------10-------10-----------------------|
    f    f    f    f      f    f   f    f |___pm__| (ease off) 
 
: Ultimate Guitar Archive :: 
http://www.ultimate-guitar.com 
Comments