Offspring - Original Prankster Chords & Tabs

 

Original Prankster Chords & Tabs

Offspring Chords & Tabs

Version: 4 Type: Tab 0 ratings
1 star 2 stars 3 stars 4 stars 5 stars
comments

Original Prankster Tab

   
#----------------------------------PLEASE NOTE---------------------------------#
#This file is the author's own work and represents their interpretation of the #
#song. You may only use this file for private study, scholarship, or research. #
#------------------------------------------------------------------------------#
[ Tab from: http://www.guitartabs.cc/tabs/o/offspring/original_prankster_tab_ver_4.html ]
Artist: Offspring   
Song: Original Prankster(Album Conspiracy Of One)
Tabbed by: John Leadman
                 
                        
               
   
   
   CHORDS:
   
        
   A5  (x02xxx)    E5  (x79xxx)
   C5  (x35xxx)    G5  (35xxxx)
   D5  (x57xxx)    G2  (xx57xx)
   Eb5 (x68xxx)    G#5 (xx68xx)
   
   
   
   For the verses and pre-choruses I just tabbed them out and then put
   the lyrics below, but for the chorus I just put the chords above the
   lyrics, I didn't think I needed to tab out the chorus, you just strum
   the chords. I found the lyrics on the net but there were some errors
   in them. There might be more
   
   
   Whenever there's a *** under the tab it means play that part
   palm-muted.
   
   INTRO:
   
   Here it goes:
   E|-------------------------------------------------------------
   B|-------------------------------------------------------------
   G|-------------------------------------------------------------
   D|-----------------------------7-------------------------------
   A|--0-0-3-0-0----------0-0-3-0---0-3-0----------0-0-3-0-0---5--
   E|-------------------------------------------------------------
   
   E-----------------------------------------------------------
   B-----------------------------------------------------------
   G-----------------------------------------------------------
   D----------7----------------------------7-------------------
   A--0-0-3-0---0-0-5--5--3-5--3---0-0-3-0---0-6-5--5--3-5--3--
   E-----------------------------------------------------------
   
   E-----------------------------------------------------------
   B-----------------------------------------------------------
   G-----------------------------------------------------------
   D----------7----------------------------7-------------------
   A--0-0-3-0---0-6-5--5--3-5--3---0-0-3-0---0-6-5--5--3-5--3--
   E-----------------------------------------------------------
                            You can do it!
   E-------------------|
   B-------------------|
   G-------------------|
   D----------7--------|
   A--0-0-3-0---0-6-5--|
   E-------------------|
   
   
   
   Here's how you play the tab for the VERSES:
   (you should play this very slightly palm-muted)
   
   E|-----------------------------------------------------------
   B|-----------------------------------------------------------
   G|-----------------------------------------------------------
   D|----------7----------------------------7-------------------
   A|--0-0-3-0---0-6-5--5--3-5--3---0-0-3-0---0-6-5--5--3-5--3--
   E|-----------------------------------------------------------
   
   E------------------------------------------------------------|
   B------------------------------------------------------------|
   G------------------------------------------------------------|
   D----------7-----------------------------------9-9-9-9-9-9-9-|
   A--0-0-3-0---0-6-5--5--3-5--3---5--5-5-5-5-5-5-7-7-7-7-7-7-7-|
   E-------------------------------3--3-3-3-3-3-3---------------|
                                      ***********
   
   VERSE 1: [Play tab above twice]
  
   (Until the break of dawn ect)
   
   
   Here's the tab for the PRE-CHORUS:
   
   E|-------------------------------------------------------
   B|-------------------------------------------------------
   G|-------------------------------------------------------
   D|--2---5--9--8-7--7--5-7--5---2---5--9--8-7--7--5-7--5--
   A|--0---3--7--6-5--5--3-5--3---0---3--7--6-5--5--3-5--3--
   E|-------------------------------------------------------
   
   E-------------------------------------------------------------|
   B-------------------------------------------------------------|
   G-------------------------------------------------------------|
   D--2---5--9--8-7--7--5-7--5------------------9-9-9-9-9-9-9-9--|
   A--0---3--7--6-5--5--3-5--3---5--5-5-5-5-5-5-7-7-7-7-7-7-7-7--|
   E-----------------------------3--3-3-3-3-3-3------------------|
                                    ***************************
   
   PRE-CHORUS: [play with tab above]
   
   (Knock down the walls ect)
   
   
   CHORUS:
   
               A5             D5      G2
   You're gonna-------------------------|

   A5               D5      G2
   Break out----------------------------|

   A5             D5      G2
   Bust out-----------------------------|

                G2   D5   G2   D5
   You'll never-------------------------|

   G2                   G#5 [start tab below]
   That's what-------->
   
   
   E|-----------------------------------------------------------
   B|-----------------------------------------------------------
   G|-----------------------------------------------------------
   D|----------7----------------------------7-------------------
   A|--0-0-3-0---0-6-5--5--3-5--3---0-0-3-0---0-6-5--5--3-5--3--
   E|-----------------------------------------------------------
                                                          You can do it!
   
   E------------------------------------------------|
   B------------------------------------------------|
   G------------------------------------------------|
   D----------7----------------------------7--------|
   A--0-0-3-0---0-6-5--5--3-5--3---0-0-3-0---0-6-5--|
   E------------------------------------------------|
   
   
   
   VERSE 2: [play like VERSE 1]
   
   (You know it smells like shit, goddamn ect)
   
   
   PRE-CHORUS: [play like first PRE-CHORUS]
   
   (Knock down the walls ect)
   
   
   CHORUS: [play like first CHORUS]
   
   You're gonna bust out ohh (Original Prankster) ect.
   
   E|-------------------------------------------------------------
   B|-------------------------------------------------------------
   G|-------------------------------------------------------------
   D|-----------------------------7-------------------------------
   A|--0-0-3-0-0----------0-0-3-0---0-3-0----------0-0-3-0-0---5--
   E|-------------------------------------------------------------
                                             Hey!
   
   E------------------------------|
   B------------------------------|
   G------------------------------|
   D----------7-------------------|
   A--0-0-3-0---0-0-5--5--3-5--3--|
   E------------------------------|
   
   
   
   In VERSE 3 you play it a little differently than the
   other verses. You play this 7 times:
   
   E|------------------------------|
   B|------------------------------|
   G|------------------------------|  [play it kinda quietly and a bit
   D|----------7-------------------|   palm-muted]
   A|--0-0-3-0---0-6-5--5--3-5--3--|
   E|------------------------------|
   
   and then this once:
   
   E|----------------------------|
   B|----------------------------|  \ = slide down, you don't have to
   G|----------------9\-------9\-|      slide to any exact fret, just
   D|----------------9\-------9\-|      slide down a bit.
   A|--5--5-5-5-5-5--7\-------7\-|
   E|--3--3-3-3-3-3--------------|
          *******
   
   VERSE 3: [play with tab above]
   --------
   (Time, time, so cool to see ya ect)
   
   
   PRE-CHORUS: [play like first PRE-CHORUS]
   
   (Knock down the walls ect)
   
   
   CHORUS: 
   
   
   
Comments