Offspring - Original Prankster Chords & Tabs

 

Original Prankster Chords & Tabs

Offspring Chords & Tabs

Version: 17 Type: Tab 0 ratings
1 star 2 stars 3 stars 4 stars 5 stars
comments

Original Prankster Tab

Artist:The Offspring
Song:Original Prankster
Album Conspiracy of One
Tabbed by: Jordan Patrick

Here is a more complete version of original prankster tabbed
thouroghly and easier chord changes. Attached Riffs are
played at the same time.

Note Values
3------|Quarter
10-----|Notes

3---|Eighth
10--|Notes


Legend
T=tied notes(Pick First Note Only)
/9=slide into note or chord
PM=Palm Mutes
Q=Quarter Rest
W=Whole Rest
E=Eight Rest
*=Don't play notes when indicated

Intro(0:00) & Interlude(2:24)(PM 2nd time only)
Gtr. 1(Elec W/ Dist.)
E|--------------------------------|--------------------------------|
B|--------------------------------|--------------------------------|
G|--------------------------------|--------------------------------|
D|--------------------------------|--------------------------------|
A|0---0---3---0---0------Q--------|---------------W----------------|
E|--------------------------------|--------------------------------|


E|--------------------------------|--------------------------------|
B|--------------------------------|--------------------------------|
G|----------------2---------------|--------------------------------|
D|--------------------------------|--------------------------------|
A|0---0---3---0-------0---3---0---|--------------=W----------------|
E|--------------------------------|--------------------------------|


E|--------------------------------|--------------------------------|
B|--------------------------------|--------------------------------|
G|--------------------------------|--------------------------------|
D|--------------------------------|--------------------------------|
A|0---0---3---0---0------E----5---|---------------W----------------|
E|--------------------------------|--------------------------------|


  Riff 1(Play Twice)(Play after 1st Chorus to)           End Riff 1
E|--------------------------------|--------------------------------|
B|--------------------------------|--------------------------------|
G|----------------2---------------|--------------------------------|
D|--------------------------------|--------------------------------|
A|0---0---3---0-------0---0---5---|0---5---0---3---5------3--------|
E|--------------------------------|--------------------------------|
*|                                 PM................
*|
*|Gtr. 2(Piano arr. for gtr.)
*|Riff 1A(Play Twice)(Play after 1st chorus to)         End Riff 1A
E|--------------------------------|--------------------------------|
B|--------------------------------|--------------------------------|
G|--------------------------------|--------------------------------|
D|--------2-----------2-------4---|----4-----------4-------2-------|
A|0---E---3---E---0---3---E---5---|E---5---E---0---5---E---3---E---|
E|--------------------------------|--------------------------------|

[ Tab from: http://www.guitartabs.cc/tabs/o/offspring/original_prankster_tab_ver_17.html ]
Play this after riff 1
Gtr. 2 Plays 1st Measure of Riff 1   Until the Break of Dawn...
E|--------------------------------|--------------------------------|
B|--------------------------------|--------------------------------|
G|----------------2---------------|--------------------------------|
D|--------------------------------|--------------------------------|
A|0---0---3---0-------0---6---5---|---------------W----------------|
E|--------------------------------|--------------------------------|


Verse(0:27, 1:32 & 2:37)(Play Three Times)
Gtr. 2 Plays Riff 1 Three Times
E|--------------------------------|--------------------------------|
B|--------------------------------|--------------------------------|
G|----------------2---------------|--------------------------------|
D|--------------------------------|--------------------------------|
A|0---0---3---0-------0---6---5-T-|5---5---0---3---5------3--------|
E|--------------------------------|--------------------------------|
  PM................................................

  Riff 2(Play Once)                                      End Riff 2
Don't Play Notes on stars 3rd Time this riff is played(3:24)
E|--------------------------------|--------------------------------|
B|--------------------------------|--------------------------------|
G|---------------------------/9---|9---9---9---9---9---9-----9-----|
D|5------5---5---5---5---5---/9---|9---9---9---9---9---9-----9-----|
A|5------5---5---5---5---5---/7---|7---7---7---7---7---7-----7-----|
E|3------3---3---3---3---3--------|--------------------------------|
         PM................        ..................
                                       ******************


Pre-Chorus(0:53, 1:58 & 3:04)
E|--------------------------------|--------------------------------|
B|--------------------------------|--------------------------------|
G|2------5-----/9------8---7--T---|7---7------5---7------5---------|
D|2------5-----/9------8---7--T---|7---7------5---7------5---------|
A|0------3-----/7------6---5--T---|5---5------3---5------3---------|
E|--------------------------------|--------------------------------|


Chorus(1:06, 2:11 & 3:17)(Play Three Times)
E|--------------------------------|--------------------------------|
B|--------------------------------|--------------------------------|
G|--------------------------------|7------7---/12------12--12--12--|
D|7------7--T---7---7---7---7-----|7------7---/12------12--12--12--|
A|7------7--T---7---7---7---7-----|5------5---/10------10--10--10--|
E|5------5--T---5---5---5---5-----|--------------------------------|

                                   *********************************
E|--------------------------------|--------------------------------|
B|--------------------------------|--------------------------------|
G|-------12------------12---------|----12--12--12--12--12-----13---|
D|12-----12-----12-----12----12-T-|12--12--12--12--12--12-----11---|
A|12-----10-----12-----10----12-T-|12--10--10--10--10--10-----11---|
E|10------------10-----------10-T-|10------------------------------|
                                   Play Fill one on last chorus

Fill 1
E|--------------------------------|--------------------------------|
B|--------------------------------|--------------------------------|
G|--------------------------------|----12--12--12--12--12----------|
D|12--12--12--12--12--12--12--12--|12--12--12--12--12--12-----7----|
A|12--12--12--12--12--12--12--12--|12--10--10--10--10--10-----7----|
E|10--10--10--10--10--10--10--10--|10-------------------------5----|
  PM...........................

Comments