Offspring - Original Prankster Chords & Tabs

 

Original Prankster Chords & Tabs

Offspring Chords & Tabs

Version: 16 Type: Tab 0 ratings
1 star 2 stars 3 stars 4 stars 5 stars
comments

Original Prankster Tab

artist Offspring song original prankster.
 Tabbed by rafael_v_s@hotmail.com.
  
Artist- Offspring
Song- Original Prankster
Album- Conspiracy of one

Tabbed by  Rafael Valdez       
    I think  this tab is so correct  
If you have any suggestions or comments, then please e-mail me on:
 Rafael _v_s@hotmail.com
  

     (INTRO)
e-----------------------------------                   works better with an electic guitar and  pedals   
b-----------------------------------                            but it sounds good  with acoustic guitar.
g-----------------------------------
d-----------------------------------
a---0 0-3-0-0-3--5--5-3-5--3---
e------------------------------------
[ Tab from: http://www.guitartabs.cc/tabs/o/offspring/original_prankster_tab_ver_16.html ]
         Chords
e----------------------------
B----------------------------
G-----------------9\\---(9)--
D--5-5-5-5-5-5-5--9\\---(9)-- Main
A--5-5-5-5-5-5-5--7\\---(7)--  Riff
E--3-3-3-3-3-3-3-------------


e---------------------------
B---------------------------
G-----5--9--8--7-7--5-7-5---
D--7--5--9--8--7-7--5-7-5---
A--7--3--7--6--5-5--3-5-3---
E--5------------------------

e--------------------------
B---------------------------
G--------------7--7/12-12---
D--7-7--7-7-7--7--7/12-12---
A--7-7--7-7-7--5--5/10-10--
E--5-5--5-5-5---------------

e---------------------------------
B----------------------------------
G--12--7--12--7--------------------
D--12--7--12--7--5-5-5-5-5-5-5-5---
A--10--5--10--5--5-5-5-5-5-5-5-5---
E----------------3-3-3-3-3-3-3-3---

    I hope you enjoy it 
:: Ultimate Guitar Archive :: 
http://www.ultimate-guitar.com 



Comments