Offspring - Original Prankster Chords & Tabs

 

Original Prankster Chords & Tabs

Offspring Chords & Tabs

Version: 14 Type: Tab 0 ratings
1 star 2 stars 3 stars 4 stars 5 stars
comments

Original Prankster Tab

   
Offspring / Original Prankster.
Tabbed by Richard Shearer / richardshearer@katamail.com.
  


Song: Original Prankster
Artists: The Offspring
Album: Conspiracy of one (2000), track 3
Tabbed by: Richard Shearer

This is a very good song, and for the ones who knows "Pretty Fly (for a white guy" this song could remind it, but the chords and the note ain't the same (sadly!).
I have found many other tabs of this song, and mixing them I have worked on mine.
Here it comes: if you have anything to tell me, write me at: richardshearer@katamail.com

---------------------------------------------------------------------------------------------------------------------------------------------------------------------------------------------------------------------

INTRO
        A                     B        
[E]---------------|--------------------------|
[B]---------------|--------------------------|
[G]---------------|--------------------------|
[D]---------------|--------------------------|
[A]--0-0-3-0-0----|--0-0-3-0-7-0-3-0---------|
[E]---------------|--------------------------|

        C                      D 
[E]---------------|--------------------------|
[B]---------------|--------------------------|
[G]---------------|--------------------------|
[D]------------0--|-------------1-0-0---0----|
[A]--0-0-3-0-0----|-0-0-3-0-3-0-------3---3--|
[E]---------------|--------------------------|

Repeat D part 4 times (In total 5)

[E]--------------------------|
[B]--------------------------|
[G]--------------------------|
[D]-------------1-0----------|
[A]-0-0-3-0-3-0--------------|
[E]--------------------------|

Verse 1: 

(Repeat D part)

Until the break of dawn
Life life
Cannot go by the letter
Time time
Prozac can make it better
Noise noise
Any kind will do 
Can you feel it slip away
When it's all on you 

Crime crime
Rockin' like Janet Reno
Time time
Eighteen and life in Chino
Freud Freud
All along it's true
Well you'll see there comes a day
Catches up to you 

Then when comes the bridge, play this:

Bridge:
|----------------------------------|
|----------------------------------|
|-----------------9---9-9-9-9-9-9--|
|-5---5-5-5-5-5-5-9---9-9-9-9-9-9--|
|-5---5-5-5-5-5-5-7---7-7-7-7-7-7--|
|-3---3-3-3-3-3-3------------------|

Knock down the walls  it's alive in you
Knock down the place  you're alone it's true
Knock down the world  it's alive in you
You gotta keep your head up through it all
You're gonna 

During the chorus, play like this:

|----------------------------------|
|----------------------------------|
|---------9---8-7---7---5-7---5----|
|-7--10---9---8-7---7---5-7---5----|
|-7--10---7---6-5---5---3-5---3----|
|-5---8----------------------------|

Bust out on it - original prankster
Break out yeah - original yeah
Bust out on it - original prankster
You never stop now, stop now
That's what the main man say 

Verse 2: 
(Repeat D part)

You know it smells like shit
Goddamn
Tag team the double header
Son of Sam
Fire always makes it better
Navigate
With style and aplomb
Cause wherever you're at
That¹s the tip you's on 

Lies, lies
Says he's down in the Bahamas 
Tries tries
Bangin' little hoochie mamas
No way
None of this is true
Well he'll see there comes a day
When the joke's on you yeah 

Bridge:
Repeat bridge riff and words:
Bridge:
|----------------------------------|
|----------------------------------|
|-----------------9---9-9-9-9-9-9--|
|-5---5-5-5-5-5-5-9---9-9-9-9-9-9--|
|-5---5-5-5-5-5-5-7---7-7-7-7-7-7--|
|-3---3-3-3-3-3-3------------------|

Repeat chorus (same words and chords):
[ Tab from: http://www.guitartabs.cc/tabs/o/offspring/original_prankster_tab_ver_14.html ]
|----------------------------------|
|----------------------------------|
|---------9---8-7---7---5-7---5----|
|-7--10---9---8-7---7---5-7---5----|
|-7--10---7---6-5---5---3-5---3----|
|-5---8----------------------------|


Verse 3:
(Repeat D part again)

Dime dime
So good to see ya
Nine nine
Don't want to be ya

Crime crime
Fine sensimilla 
(3x)

Well, you'll see there comes a day catches up to you 

Repeat bridge and chorus again.

Bridge:
|----------------------------------|
|----------------------------------|
|-----------------9---9-9-9-9-9-9--|
|-5---5-5-5-5-5-5-9---9-9-9-9-9-9--|
|-5---5-5-5-5-5-5-7---7-7-7-7-7-7--|
|-3---3-3-3-3-3-3------------------|

Knock down the walls  it's alive in you
Knock down the place  you're alone it's true
Knock down the world  it's alive in you
You gotta keep your head up through it all
You're gonna 

Chorus:
|----------------------------------|
|----------------------------------|
|---------9---8-7---7---5-7---5----|
|-7--10---9---8-7---7---5-7---5----|
|-7--10---7---6-5---5---3-5---3----|
|-5---8----------------------------|

Bust out on it - original prankster
Break out yeah - original yeah
Bust out on it - original prankster
You never stop now, stop now
That's what the main man say 

Last time you play the chorus, words change:

You never stop now, stop now
stop now, stop now,

That's what the main man say!

(During the ending, play same chords as in the chorus)

--------------------------------------------------------------------------------------------------------------------------------------------------------------------------------------------------
--------------------------------------------------------------------------------------------------------------------------------------------------------------------------------------------------

Here come the complete full lyrics:

You can do it!

Until the break of dawn
Life life
Cannot go by the letter
Time time
Prozac can make it better
Noise noise
Any kind will do 
Can you feel it slip away
When it's all on you 

Crime crime
Rockin' like Janet Reno
Time time
Eighteen and life in Chino
Freud Freud
All along it's true
Well you'll see there comes a day
Catches up to you 

Knock down the walls  it's alive in you
Knock down the place  you're alone it's true
Knock down the world  it's alive in you
You gotta keep your head up through it all
You're gonna 

Bust out on it - original prankster
Break out yeah - original yeah
Bust out on it - original prankster
You never stop now, stop now
That's what the main man say 

You know it smells like shit
Goddamn
Tag team the double header
Son of Sam
Fire always makes it better
Navigate
With style and aplomb
Cause wherever you're at
That¹s the tip you's on 

Lies, lies
Says he's down in the Bahamas 
Tries tries
Bangin' little hoochie mamas
No way
None of this is true
Well he'll see there comes a day
When the joke's on you yeah 

Knock down the walls  it's alive in you
Knock down the place  you're alone it's true
Knock down the world  it's alive in you
You gotta keep your head up through it all
You're gonna 

Bust out on it - original prankster
Break out yeah - original yeah
Bust out on it - original prankster
You never stop now, stop now
That's what the main man say 

Dime dime
So good to see ya
Nine nine
Don't want to be ya

Crime crime
Fine sensimilla 
Crime crime
Fine sensimilla 
Crime crime
Fine sensimilla 
Well you'll see there comes a day
Catches up to you 

Knock down the walls  it's alive in you
Knock down the place  you're alone it's true
Knock down the world  it's alive in you
You gotta keep your head up through it all
You're gonna 

Bust out on it - original prankster
Break out yeah - original yeah
Bust out on it - original prankster
You never stop now, stop now
That's what the main man say 

 
:: Ultimate Guitar Archive :: 
http://www.ultimate-guitar.com 



Comments