Offspring - Original Prankster Chords & Tabs

 

Original Prankster Chords & Tabs

Offspring Chords & Tabs

Version: 13 Type: Tab 0 ratings
1 star 2 stars 3 stars 4 stars 5 stars
comments

Original Prankster Tab

Offspring,Original Prankster.
Tabbed by Matt,green_guitar15@hotmail.com.
  
Tuning: Standard

Intro
-----

E|--------------------------------------------------|
B|--------------------------------------------------|
G|--------------------------------------------------|
D|--------------------------7-----------------------|
A|--0-0-3-0-0-----0-0-3-0---0-3-0-----0-0-3-0-0--5--|
E|--------------------------------------------------|



E|-------------------------------------------------------------------|
B|-------------------------------------------------------------------|
G|-------------------------------------------------------------------|
D|--0-0-3-0-7-0-2-3-3-2-3-2---0-0-3-0-7-0-4-3-3-2-3-2---0-0-3-7-4-3--|
A|-------------------------------------------------------------------|
E|-------------------------------------------------------------------|
                              ________3 times________

Verse
-----
    __________PM___________
E|---------------------------|
B|---------------------------|
G|---------------------------|
D|---------------------------|
A|--0-0-3-0-7-0-4-3-3-2-3-2--|
E|---------------------------|
    ________3 times________


E|------------------------------------|
B|------------------------------------|
G|-------------------7-7-7-7-7-7-7-7--|
D|--5-5-5-5-5-5-5-5--7-7-7-7-7-7-7-7--|
A|--5-5-5-5-5-5-5-5--5-5-5-5-5-5-5-5--|
E|--3-3-3-3-3-3-3-3-------------------|
        ____PM_____  ______PM_______

Repeat whole verse twice and then...

[ Tab from: http://www.guitartabs.cc/tabs/o/offspring/original_prankster_tab_ver_13.html ]
Chorus
------

E|--------------------------------------------------------|
B|--------------------------------------------------------|
G|--2-5-9-8-7-7-5-7-7--------------------7-7-7-7-7-7-7-7--|
D|--2-5-9-8-7-7-5-7-7---5-5-5-5-5-5-5-5--7-7-7-7-7-7-7-7--|
A|--0-3-7-6-5-5-3-5-5---5-5-5-5-5-5-5-5--5-5-5-5-5-5-5-5--|
E|----------------------3-3-3-3-3-3-3-3-------------------|
    _____3 times_____       _____PM____  ______PM_______


E|--------------------------------------------------------|
B|--------------------------------------------------------|
G|--2--2-2-2-2--7-7/12-12-12---12-7--12-7--7-7-7-7-7-7-7--|
D|--2--2-2-2-2--7-7/12-12-12---12-7--12-7--7-7-7-7-7-7-7--|
A|--0--0-0-0-0--5-5/10-10-10---10-5--10-5--5-5-5-5-5-5-5--|
E|--------------------------------------------------------|
    _________3 times________               _____PM______



Go through this (excpet intro) twice. Instead of starting the the verse muted, play it open, 
then muted.
After going through twice, repeat the whole thing again from the normal intro and when you 
get the the end very end play this:

E|--------------------------------|
B|--------------------------------|
G|--12-7--12-7--7-7-7-7-7-7-7--2--|
D|--12-7--12-7--7-7-7-7-7-7-7--2--|
A|--10-5--10-5--5-5-5-5-5-5-5--0--|
E|--------------------------------|
                _____PM_____

That just extends the end of the song and adds extra at the end.

That's it. Any queries, e-mail me.
 
:: Ultimate Guitar Archive :: 
http://www.ultimate-guitar.com 

Comments