Offspring - Original Prankster Chords & Tabs

 

Original Prankster Chords & Tabs

Offspring Chords & Tabs

Version: 2 Type: Bass Tab 0 ratings
1 star 2 stars 3 stars 4 stars 5 stars
comments

Original Prankster Bass Tab

Song: Original Prankster
Band: Offspring
Album: Conspiracy Of One
Tabbed By: Ba$$ Lizard
Previous Tabber: Sebastian Gopel

I guarantee this one is correct.

*Intro*

G:----------------------------------------------------
D:----------------------------------------------------
A:------------3-----5--------------3------5-5-3-5\3---
E:-0-3/4--5-5---5-5----0-3/4---5-5---5-5--------------

*Pre-Verse*

G:----------------------------------------------
D:----------------------------------------------
A:---3-7-7-6-5-5-3-5\3----3-7-7-6-5-5-3-5-------
E:-5--------------------5-----------------0h3p0-

G:-------------------------------------
D:-------------------------------------    .= Play short 
A:---3-7-7-6-5-5-3-5\3----3-7-7-6-5.---
E:-5--------------------5--------------

*Verse*
                       3x                               1x
G:|---------------------|--------------------------------|
D:|---------------------|--------------------------------|
A:|---3-------5-5-3-5\3-|-----------------7-7-7-7-7-7-7-7|
E:|-5---0---------------|-3-3-3-3-3-3-3-3----------------|

*Pre-Chorus*

G:----------------------------------------------
D:----------------------------------------------
A:---3-7-7-6-5-5-3-5\3----3-7-7-6-5-5-3-5-------
E:-5--------------------5-----------------0h3p0-
[ Tab from: http://www.guitartabs.cc/tabs/o/offspring/original_prankster_btab_ver_2.html ]
G:----------------------------------------------------
D:----------------------------------------------------   
A:---3-7-7-6-5-5-3-5\3-----------------7-7-7-7-7-7-7-7
E:-5-------------------3-3-3-3-3-3-3-3----------------

*Chorus*
                        3x                                1x
G:|----------------------|---------------------------------|
D:|----------------------|---------------------------------|
A:|-----------5-55/10-10-|-10-----10----10-10-10-10-11-12\-|
E:|-5--5--55x------------|----10-----10--------------------|

*Bridge*
                        7x                    1x
G:|----------------------|---------------------|
D:|----------------------|---------------------|
A:|----3-7-7-6-5-5-3-5\3-|---------------------|
E:|--5-------------------|-3-3-3-3-3-3-3-3/12\-|

*Last Chorus*

                         3x                               
G:|----------------------|-----------------------------------
D:|----------------------|-----------------------------------
A:|-----------5-55/10-10-|-10-----10-------------------------
E:|-5--5--55x------------|----10-----10--10-10-10-10-10-10-10

G:---------------------------------
D:---------------------------------
A:-10-----10-----10-10-10-10-11-12\-
E:----10-----10--------------------

Structure

Intro       1x
Pre-Verse   1x
Verse       2x
Pre-Chorus  1x
Chorus      1x
Pre-Verse   1x
Verse       2x
Pre-Chorus  1x
Chorus      1x
Intro       1x
Bridge      1x
Pre-Chorus  1x
Last Chorus 1x
Comments