Offspring - One Fine Day Chords & Tabs

 

One Fine Day Chords & Tabs

Offspring Chords & Tabs

Version: 7 Type: Tab 0 ratings
1 star 2 stars 3 stars 4 stars 5 stars
comments

One Fine Day Tab

   
xxxxxxxxxxxxxxxxxxxxxxxxxxxxxxxxxxxxxxxxxxxxxxxxxxxxxxxxxxxxxxxxxxxxxxxxxxxxx

Band's name: Offspring
Song Name: One Fine Day
Album: Conspiracy of one, Columbia Records 2000
Tabbed By: Yokim (Joachimcarlsen@hotmail.com)

xxxxxxxxxxxxxxxxxxxxxxxxxxxxxxxxxxxxxxxxxxxxxxxxxxxxxxxxxxxxxxxxxxxxxxxxxxxxx

Intro\Verse

P.M................................................................|
e|-----------------------------------------------------------------|
b|-----------------------------------------------------------------|
g|-4-4-4-4-4-4-4-4-6-6-6-6-6-6-6-6-----------------8-8-8-8-8-8-8-8-|
d|-4-4-4-4-4-4-4-4-6-6-6-6-6-6-6-6-4-4-4-4-4-4-4-4-8-8-8-8-8-8-8-8-|
a|-2-2-2-2-2-2-2-2-4-4-4-4-4-4-4-4-4-4-4-4-4-4-4-4-6-6-6-6-6-6-6-6-|
e|---------------------------------2-2-2-2-2-2-2-2-----------------|
 | If i had a perfect day          i would have it start this way

 P.M...............................................................|
e|-----------------------------------------------------------------|
b|-----------------------------------------------------------------|
g|-4-4-4-4-4-4-4-4-6-6-6-6-6-6-6-6---------------------------------|
d|-4-4-4-4-4-4-4-4-6-6-6-6-6-6-6-6-4-4-4-4-4-4-4-4-4-4-4-4-4-4-4-4-|
a|-2-2-2-2-2-2-2-2-4-4-4-4-4-4-4-4-4-4-4-4-4-4-4-4-4-4-4-4-4-4-4-4-|
e|---------------------------------2-2-2-2-2-2-2-2-2-2-2-2-2-2-2-2-|
 |open up the fidge and heve a     tall boy                  Yeah!
e|-------------------------------------------------|
b|-------------------------------------------------|
g|-4--4--4--4--6--6--6--6--3--3--3--3--8--8--8--8--|
d|-4--4--4--4--6--6--6--6--3--3--3--3--8--8--8--8--|
a|-2--2--2--2--4--4--4--4--1--1--1--1--6--6--6--6--|
e|-------------------------------------------------|
 | then i'd meet up with my friends
 |                         head out to the game again

P.M.....................................................|
e|-------------------------------------------------------|
b|-------------------------------------------------------|
g|---------------------------------6---6---6--6--6-6-6-6-|
d|-6-6-6-6-6-6-6-6-6-6-6-6-6-6-6-6-6---6---6--6--6-6-6-6-|
a|-6-6-6-6-6-6-6-6-6-6-6-6-6-6-6-6-4---4---4--4--4-4-4-4-|
e|-4-4-4-4-4-4-4-4-4-4-4-4-4-4-4-4-----------------------|
 |We don't even really care who   wins wins one,two,three

xxxxxxxxxxxxxxxxxxxxxxxxxxxxxxxxxxxxxxxxxxxxxxxxxxxxxxxxxxxxxxxxxxxxxxxxxxxxx

Chorus x 2

[ Tab from: http://www.guitartabs.cc/tabs/o/offspring/one_fine_day_tab_ver_7.html ]
e|------------------------------------------------|
b|------------------------------------------------|
g|---------4-4-4-4-6-6-6-6---------11-11-11-11----|
d|-4-4-4-4-4-4-4-4-6-6-6-6--4-4-4-4-11-11-11-11---|
a|-4-4-4-4-2-2-2-2-4-4-4-4--4-4-4-4--9--9--9--9---|
e|-2-2-2-2------------------2-2-2-2---------------|
  |------x-2--------------||---x-1----------------|

the second time you play "x-2" jump over "x-1"

Now exitement seems to grow
when we're hangin' whit the bro's
when we're chillin' and we poung
a case of stroh's
Now the game is cool to see
you can hi' five on tv
count the riot on the 1 2 3

operation is in sight
and the field is open wide
when you break it then you know you're still alive
if the cops dont make you pay
and you make your getaway
then you know thats
one fine day

xxxxxxxxxxxxxxxxxxxxxxxxxxxxxxxxxxxxxxxxxxxxxxxxxxxxxxxxxxxxxxxxxxxxxxxxxxxxxxxxx

Bridge

e|------------------------------------------|
b|------------------------------------------|
g|------------------------------------------|
d|-------4-4-1---------1-4------3-6-4-4-4-4-|
a|-------------4-2-2-4-----4-4-6------------|
e|-2-2-2------------------------------------|

e|---------------------------------------------|
b|---------------------------------------------|
g|---------------------------------------------|
d|-------4-4-1---------1-4-------3-6-8-6-4-1---|
a|-------------4-2-2-4-----4-4-6-------------4-|
e|-2-2-2---------------------------------------|

xxxxxxxxxxxxxxxxxxxxxxxxxxxxxxxxxxxxxxxxxxxxxxxxxxxxxxxxxxxxxxxxxxxxxxxxxxxxxxxxx

Second verse

on that day before we're through
we could torch a car or two
then have our selfs another tall boy
Yeah!!
Water hoses and batons thats
the real game thats on
i dont really give a shit wins wins one two three

xxxxxxxxxxxxxxxxxxxxxxxxxxxxxxxxxxxxxxxxxxxxxxxxxxxxxxxxxxxxxxxxxxxxxxxxxxxxxxxxx

Then its the chorus again

xxxxxxxxxxxxxxxxxxxxxxxxxxxxxxxxxxxxxxxxxxxxxxxxxxxxxxxxxxxxxxxxxxxxxxxxxxxxxxxxx

Bridge

xxxxxxxxxxxxxxxxxxxxxxxxxxxxxxxxxxxxxxxxxxxxxxxxxxxxxxxxxxxxxxxxxxxxxxxxxxxxxxxxx

This part is just a slower part of the Chorus
so just play the Chorus slower!!

i belive it's my god given right
to destroy everything i my sight
cause it never gets old it never gets dull
the only thing it gets is more blod
drinkin' fightin' going to the game
in our world it's a way to stay sane
if you're askin me to have it my way
i'd say thats
one fine day

xxxxxxxxxxxxxxxxxxxxxxxxxxxxxxxxxxxxxxxxxxxxxxxxxxxxxxxxxxxxxxxxxxxxxxxxxxxxxxxxx

chorus

xxxxxxxxxxxxxxxxxxxxxxxxxxxxxxxxxxxxxxxxxxxxxxxxxxxxxxxxxxxxxxxxxxxxxxxxxxxxxxxxx

The end

e|----------------|
b|----------------|
g|-6--6--6-6--6---|
d|-6--6--6-6--6-4-|
a|-4--4--4-4--4-4-|
e|--------------2-|

xxxxxxxxxxxxxxxxxxxxxxxxxxxxxxxxxxxxxxxxxxxxxxxxxxxxxxxxxxxxxxxxxxxxxxxxxxxxx

It's a easy song to play
and i think this tab is 99,9 % right

xxxxxxxxxxxxxxxxxxxxxxxxxxxxxxxxxxxxxxxxxxxxxxxxxxxxxxxxxxxxxxxxxxxxxxxxxxxxx
Comments