Offspring - One Fine Day Chords & Tabs

 

One Fine Day Chords & Tabs

Offspring Chords & Tabs

Version: 6 Type: Tab 0 ratings
1 star 2 stars 3 stars 4 stars 5 stars
comments

One Fine Day Tab

----------------------------------
   One Fine Day(solo)
----------------------------------
[ Tab from: http://www.guitartabs.cc/tabs/o/offspring/one_fine_day_tab_ver_6.html ]
This is my first tab, so i don`t Know if it`s Good.
If you like it or not, please send me a hotmail: Joachimcarlsen@hotmail.com
It`s From Chorus To Verse
 
E|------------------------------------------|
B|------------------------------------------|
G|------------------------------------------|
D|-------5-5-2-0-------2-5-------4-7-5-5-5-5|
A|---------------3-3-5-----5-5-7------------|
E|-3-3-3- ----------------------------------|

E|---------------------------------------------|
B|---------------------------------------------|
G|---------------------------------------------|
D|-------5-5-2-0-------2-5-------4-7-9-7-5-2-0-|
A|---------------3-3-5-----5-5-7---------------|
E|-3-3-3---------------------------------------|

Then it continues With C, D.........
I hope you like it!!!!!!!
Comments