Offspring - One Fine Day Chords & Tabs

 

One Fine Day Chords & Tabs

Offspring Chords & Tabs

Version: 1 Type: Bass Tab 0 ratings
1 star 2 stars 3 stars 4 stars 5 stars
comments

One Fine Day Bass Tab

   
Artist:Offspring
Song:One Fine Day
Album:Conspiracy of One

Bass Enters At 0:10

Intro
G:----------------------------------------------|
D:-------------1~~------------------------------|x1
A:-2~~-4~~-1~~----------------------------------|
E:-----------------4444444444444444-9-9-999-14/-|

Chorus
G:-----------------------------------------------------------------|
D:-----------------------------------------------------------------|x2
A:---------2222222244444444----------------2222222244444444--------|
E:-22222222----------------2222222222222222----------------222-14/-|  

Solo-(Bass just plays the chorus through this but the solo is
cool to play if you want to)
G:-----------------------------------------------------3----------|
D:-----4-1-----1-4-----3-64444-----4-1-----1-4-----3-6---6-4------|x1
A:--------422-4----44-6---------------422-4----44-6----------64~~-|
E:-22-4------------------------22-4-------------------------------|

Verse
G:-----------------------------------------------------------------|
D:-------------------------11111111--------------------------------|x1
A:-2222222244444444----------------2222222244444444----------------|
E:-----------------22222222------------------------2222222222222222|
[ Tab from: http://www.guitartabs.cc/tabs/o/offspring/one_fine_day_btab.html ]
G:--------------------------------------------------------------|
D:-------------------------11111111-----------------------------|x1
A:-222222224444444411111111-------------------------------------|
E:---------------------------------4444444444444444-9-9-999-14/-| 

Chorus

Solo(or Chorus)

Bridge 
G:-----------------------------------------------------------------|
D:-----------------------------------------------------------------|x1
A:-----2-2-4-4---------2-2-4-4---------2-2-4-4---------2-2-4-4-----|
E:-2-2---------2-2-2-2---------2-2-2-2---------2-2-2-2---------2-2-|  

Final Chorus
G:-----------------------------------------------------------------|
D:-----------------------------------------------------------------|x1
A:---------2222222244444444----------------2222222244444444--------|
E:-22222222----------------2222222222222222----------------222-14/-|

G:-----------------------------------------------------------------|
D:-----------------------------------------------------------------|x1
A:---------2222222244444444----------------2222222244444444--------|
E:-22222222----------------2222222222222222----------------222-14/-|

G:-----------------------------|
D:-----------------------------|x1
A:-----------------------------|
E:-99999999-222-14/-9-9-99-9/2-|
Comments