Offspring - Nothing From Something Chords & Tabs

 

Nothing From Something Chords & Tabs

Offspring Chords & Tabs

Version: 3 Type: Tab 0 ratings
1 star 2 stars 3 stars 4 stars 5 stars
comments

Nothing From Something Tab

   
#----------------------------------PLEASE NOTE--------------------------------#
#This file is the author's own work and represents their interpretation of the#
#song. You may only use this file for private study, scholarship, or research.#
#-----------------------------------------------------------------------------#

Date: Mon, 18 May 1998 22:57:11 +0200
From: JohnnyC 
Subject: o/offspring/nothing_from_something.tab

Song:           Nothing From Something
Artist:         The Offspring
CD:             Ignition (1992 Epitaph)
Track-Time:     11-00:00

There are two guitars in this song:

 guitar1: Hash-distortion (ca 60%), left speaker
 guitar2: distortion (ca 90%), right speaker, not that loud

String setup is "E-A-D-G-B-E".



Intro:

First there is only guitar1...

   1  +  2  +  3  +  4  +  1  +  2  +  3  +  4  +
 ------------------------------------------------- x - deadnote
 ------------------------------------------------- r - release 
 --9-----9-----9-----x--9--r--9--9-----9-----x--x-     left hand
 --9-----9-----9-----x--9--r--9--9-----9-----x--x-
 --7-----7-----7-----x--7--r--7--7-----7-----x--x-
 -------------------------------------------------


   1  +  2  +  3  +  4  +  1  +  2  +  3  +  4  +
 -------------------------------------------------
 -------------------------------------------------
 --7-----7-----7-----x--7--r--9--9-----9-----x--x-
 --7-----7-----7-----x--7--r--9--9-----9-----x--x-
 --5-----5-----5-----x--5--r--7--7-----7-----x--x-
 -------------------------------------------------


   1  +  2  +  3  +  4  +  1  +  2  +  3  +  4  +
 ------------------------------------------------- 
 ------------------------------------------------- 
 --9-----9-----9-----x--9--r--9--9-----9-----x--x-
 --9-----9-----9-----x--9--r--9--9-----9-----x--x-
 --7-----7-----7-----x--7--r--7--7-----7-----x--x-
 -------------------------------------------------


   1  +  2  +  3  +  4  +  1  +  2  +  3  +  4  +
 -------------------------------------------------
 -------------------------------------------------
 --7-----7-----7-----x--7--r----------------------
 --7-----7-----7-----x--7--r--9--9-----9-----x--x-
 --5-----5-----5-----x--5--r--9--9-----9-----x--x-
 -----------------------------7--7-----7-----x--x-


   1  +  2  +  3  +  4  +  1  +  2  +  3  +  4  +
 ------------------------------------------------- 
 ------------------------------------------------- 
 --9-----9-----9-----x--9--r--9--9-----9-----x--x-
 --9-----9-----9-----x--9--r--9--9-----9-----x--x-
 --7-----7-----7-----x--7--r--7--7-----7-----x--x-
 -------------------------------------------------


   1  +  2  +  3  +  4  +  1  +  2  +  3  +  4  +
 -------------------------------------------------
 -------------------------------------------------
 --7-----7-----7-----x--7--r--9--9-----9-----x--x-
 --7-----7-----7-----x--7--r--9--9-----9-----x--x-
 --5-----5-----5-----x--5--r--7--7-----7-----x--x-
 -------------------------------------------------


Now it's time for both guitars!

   1  +  2  +  3  +  4  +  1  +  2  +  3  +  4  +
 -------------------------------------------------
 -------------------------------------------------
 -------------------------------------------------
 -10----------------------------------------10-10-
 -10----------------------------------------10-10-
 --8-----------------------------------------8--8-


   1  +  2  +  3  +  4  +  1  +  2  +  3  +  4  +
 -------------------------------------------------
 -------------------------------------------------
 --------------------------7----------------------
 --9-----------------------7----------------------
 --9-----------------------5----------------------
 --7----------------------------------------------

[ Tab from: http://www.guitartabs.cc/tabs/o/offspring/nothing_from_something_tab_ver_3.html ]
main riff:

   1  +  2  +  3  +  4  +  1  +  2  +  3  +  4  +
 -------------------------------------------------
 -------------------------------------------------
 --9-----9-----9-----x--9--r--7--7-----7-----x--x-
 --9-----9-----9-----x--9--r--7--7-----7-----x--x-
 --7-----7-----7-----x--7--r--5--5-----5-----x--x-
 -------------------------------------------------


   1  +  2  +  3  +  4  +  1  +  2  +  3  +  4  +
 -------------------------------------------------
 -------------------------------------------------
 -----------------------------9--9-----9-----x--x-
 --7-----7-----7-----x--7--r--9--9-----9-----x--x-
 --7-----7-----7-----x--7--r--7--7-----7-----x--x-
 --5-----5-----5-----x--5--r----------------------


   1  +  2  +  3  +  4  +  1  +  2  +  3  +  4  +
 -------------------------------------------------
 -------------------------------------------------
 --9-----9-----9-----x--9--r--5--5-----5-----x--x-
 --9-----9-----9-----x--9--r--5--5-----5-----x--x-
 --7-----7-----7-----x--7--r--3--3-----3-----x--x-
 -------------------------------------------------


   1  +  2  +  3  +  4  +  1  +  2  +  3  +  4  +
 -------------------------------------------------
 -------------------------------------------------
 --7-----7-----7-----x--7--r--9--9-----9-----x--x-
 --7-----7-----7-----x--7--r--9--9-----9-----x--x-
 --5-----5-----5-----x--5--r--7--7-----7-----x--x-
 -------------------------------------------------


chorus:

   1  +  2  +  3  +  4  +  1  +  2  +  3  +  4  +
 -------------------------------------------------
 --------------------------8-----8--9-----x--8----
 --9-----9-----9-----x--9--7-----7--8-----x--7----
 --9-----9-----9-----x--9--5-----5--6-----x--5----
 --7-----7-----7-----x--7-------------------------
 -------------------------------------------------


   1  +  2  +  3  +  4  +  1  +  2  +  3  +  4  +
 -------------------------------------------------
 -------------------------------------------------
 --7-----7-----7-----x--7-------------------------
 --7-----7-----7-----x--7--9-----9--9-----x--9----
 --5-----5-----5-----x--5--9-----9--9-----x--9----
 --------------------------7-----7--7-----x--7----


bridge:

   1  +  2  +  3  +  4  +  1  +  2  +  3  +  4  +
 -------------------------------------------------
 -------------------------------------------------
 -------------------------------------------------
 --------------------9----------------------------
 --------7--7-10-10--------------7--7-10-10--9----
 --0-----------------------0--0-------------------
   \palm muting_________________________________/


   1  +  2  +  3  +  4  +  1  +  2  +  3  +  4  +
 -------------------------------------------------
 -------------------------------------------------
 -------------------------------------------------
 --------------------9----10-10--9--9-------------
 --------7--7-10-10-------------------10-10--9--9-
 --0----------------------------------------------
   \palm-muting_________________________________/


ending:
   1  +  2  +  3  +  4  +  1  +  2  +  3  +  4  +
 -------------------------------------------------
 -------------------------------------------------
 --7--7--7--7--7--7--7--x--9--9--9--9--9--9--9--x-
 --7--7--7--7--7--7--7--x--9--9--9--9--9--9--9--x-
 --5--5--5--5--5--5--5--x--7--7--7--7--7--7--7--x-
 -------------------------------------------------
   \palm-muting_________________________________/


   1  +  2  +  3  +  4  +  1  +  2  +  3  +  4  +
 -------------------------------------------------
 -------------------------------------------------
 -------------------------------------------------
 --2----------------------------------------------
 --2--Let ring!-----------------------------------
 --0----------------------------------------------


CUl8ter!

JohnnyC@gmx.de
Comments