Offspring - No Hero Chords & Tabs

 

No Hero Chords & Tabs

Offspring Chords & Tabs

Version: 2 Type: Tab 0 ratings
1 star 2 stars 3 stars 4 stars 5 stars
comments

No Hero Tab

   
TAB: No Hero by The Offspring
from Ignition

Intro (a little crunch , a boss chorus ensamble works well)
its hard to right out the tab so just listen to the CD

      B     F#   G         D          E    A       D B
 E|------------------------------------------------------------
 B|------------------------------------------------------------
 G|---------11-X-12--12----7--X-7--X--9-9----------7----------- REPEAT
 D|---9--X--11-X-12--12----7--X-7--X--9-9--7-X-7-X-7-9-9-9-9-9- TWICE
 A|---9--X--9--X-10--10----5--X-5--X--7-7--7-X-7-X-5-9-9-9-9-9-
 E|---7--X---------------------------------5-X-5-X---7-7-7-7-7-

for the verse play the intro riff with distortion but muted

Pre-chorus (just barre chords all on the A string)

F# F C# D# F# F G#

Chorus
[ Tab from: http://www.guitartabs.cc/tabs/o/offspring/no_hero_tab_ver_2.html ]
F# C# D  



---------------------------
"No Hero" by The Offspring
   off "Ignition"





  Intro/Verse Riff
E|----------------------------|        
B|----------------------------| 
G|*----11--12--7--9-----7----*|
D|*-9--11--12--7--9--7--7--9-*|
A|--9--9---10--5--7--7--5--9--|
E|--7----------------5-----7--|

  Pre-Chorus Riff
E|---------------------------------------|
B|---------------------------------------|
G|*-9--7-----7-----7-----9--7-----7--11-*|
D|*-9--7--9--7--4--7--9--9--7--9--7--11-*|
A|--7--5--9--5--4--5--9--7--5--9--5--9---|
E|--------7-----2-----7--------7---------|

  Chorus Riff
E|---------------------------------------|
B|---------------------------------------|
G|*-12------9--12------9--12------9--11-*|
D|*-12--12--9--12--12--9--12--12--9--11-*|
A|--10--12--7--10--12--7--10--12--7--9---|
E|------10---------10---------10---------|

    
Comments