Offspring - No Brakes Chords & Tabs

 

No Brakes Chords & Tabs

Offspring Chords & Tabs

Version: 2 Type: Tab 0 ratings
1 star 2 stars 3 stars 4 stars 5 stars
comments

No Brakes Tab

   
Title: No Brakes
By: The Offsping


Regular tuning

Everything is in power-chords!
\= slide down
/= slide up
X= mute
~= let ring

Riff A
E:-------------------------------------------------------:
B:-------------------------------------------------------:
G:-------------------------------------------------------:
D:--9-9-----9\------------------12-12-12-12\11-11/12-12\-:
A:--7-7-----7\5-5----5/7-7----7/10-10-10-10\9--9-/10-10\-:
E:------------3-3----3/5-5----5/-------------------------:

Riff B
E:-------------------------------------------------------:
B:-------------------------------------------------------:
G:-------------------------------------------------------:
D:--9-9-XXX-9\------------------12-12-12-12\11-11/12-12\-:
A:--7-7-XXX-7\5-5-XX-5/7-7-XX-7/10-10-10-10\9--9-/10-10\-:
E:------------3-3-XX-3/5-5-XX-5/-------------------------:

Riff C
E:-----------------------------------------------------------:
B:-----------------------------------------------------------:
G:-----------------------------------------------------------:
D:----------------7-7---7---7--7\5-5---5---5--5-5-4--5--7-77-:
A:-5-5---5---5--5/5-5---5---5--5\3-3---3---3--3-3-2--3--5-55-:
E:-3-3---3---3--3/-------------------------------------------:
[ Tab from: http://www.guitartabs.cc/tabs/o/offspring/no_brakes_tab_ver_2.html ]
Riff D
E:----------------------------------------------:
B:----------------------------------------------:
G:----------------------------------------------:
D:--9--9-7--9---12-12-11--9--9-7--9---14-14-12--:
A:--7--7-5--7---10-10-9---7--7-5--7---12-12-10--:
E:----------------------------------------------:

Here's the song order, with all of the little details tabbed out.

RIFF A X2
RIFF B X2
RIFF C X2 
RIFF D X2
RIFF A X2
RIFF B X2
RIFF C X2
RIFF D X2

Hit this chord, and the bass keeps playing.
E:-----:
B:-----:
G:-----:
D:-2~~~:
A:-2~~~:
E:-0~~~:

RIFF D X2
RIFF C X4
RIFF D X1

This is the last sequence. Notice that is exactly like riff D, except it cuts
off sooner.

E:-----------------------------------:
B:-----------------------------------:
G:-----------------------------------:
D:--9--9-7--9---12-12-11--9--9-7--9\-:
A:--7--7-5--7---10-10-9---7--7-5--7\-:
E:-----------------------------------:

Lyrics

Lay awake
I don't give a shit
If I even ever wake up in the morning
Down below
There's a pile of sin
Always waiting for a
Waiting for a warning
Burned at the stake
Inside I'm blistering
Not a whisper
Looking in you'd never know it
Miles below
I look up again
When you snap they say
Before you never show it
Someone said it's all right
Save it now, don't say it for my sake
Someone said it's all right
Faster now, you know I got no brakes
Fuses glow
Wounds festering
Till the wind comes up
And takes it to the last pow
Back and forth
Staring at the wall
This room's a cage
I know that something's got to give now
Someone said it's all right
Save it now, don't say it for my sake
Someone said it's all right
Faster now, you know I got no brakes
No brakes
Comments