Offspring - Nitro Chords & Tabs

 

Nitro Chords & Tabs

Offspring Chords & Tabs

Version: 1 Type: Bass Tab 0 ratings
1 star 2 stars 3 stars 4 stars 5 stars
comments

Nitro Bass Tab

   
Bass tab for Nitro by The Offspring


Intro
				x2
G|-------1------------------------|
D|-3-3-3----3-1-3---------1-1-1-1-|
A|--------------------------------|
E|----------------4-4-4-4---------|


Verse

G|-------------------------------------------------------------|
D|-3-3-3-3-3-3-3-3-----------------3-3-3-3-3-3-3-3-------------|
A|-------------------------6-6-6-6-------------------------6r6r|
E|-----------------4-4-4-4-------------------------4-4-4-4-----|

G|-----------------------------------------------------------------|
D|-3-3-3-3-3-3-3-3-------------------------------------------------|
A|-------------------------6-6-6-6-4-4-4-4-4-4-4-4-4-4-4-4-6-6-6-6-|
E|-----------------4-4-4-4-----------------------------------------|

[ Tab from: http://www.guitartabs.cc/tabs/o/offspring/nitro_btab.html ]
Chorus
			      Riff 1
G|---------------------------------|
D|-3-3-3-3-3-3-3-3-----------------|
A|-------------------------6-6-6-6-|
E|-----------------4-4-4-4---------|
								       Riff 2
G|--------------------------------------------------------------------------|
D|--------------------------------------------------------------------------|
A|--------------------------------------------------------------------------|
E|-1-1-1-1-1-1-1-1/4-4-4-4-4-4-4-4/6-6-6-6-6-6-6-6/9-9-9-9-9/11-11-11-11-11-|

Chorus 1: Riff 1(x2) + Riff 2
Chorus 2: Riff 2(x2)
Chorus 3: Riff 2(x4)


Bridge/solo

G|-----------------------------------------------------------------|
D|-----------------------------------------------------------------|
A|-3-3-3-3-3-3-3-3-------------------------------------------------|
E|-----------------4-4-4-4-4-4-4-4-6-6-6-6-6-6-6-6-1-1-1-1-1-1-1-1-|

This is all you need.    I think.

Notation:

/	Slide (pick second note)
r	Rest (or stacatto note)
Comments