Offspring - Million Miles Away Chords & Tabs

 

Million Miles Away Chords & Tabs

Offspring Chords & Tabs

Version: 8 Type: Tab 0 ratings
1 star 2 stars 3 stars 4 stars 5 stars
comments

Million Miles Away Tab

   
/=SLIDE
T=THUMB HOLD ON 6TH STRING
H=HAMER
B=BEND
   PM--| PM--|  PM--| PM--| PM--| 
E|-----------------------------------------------------|
B|-----------------------------------------------------|
G|--------------------2----------------------9-9-------|
D|-------4-----2-----------2-----2H4----7----9-9-------|
A|--------------------------------------7----7-7-------|
E|---2-2---2-2---2-2---2-2---2-2--------5--------------|
    T---|  T---| T---| T---| T---|
2X
GUITAR 2 HALF THE INTRO

GUITAR 1 

E|-----------------------------------------------------|
B|-----------------------------------------------------|
G|----------------------------7--7/9--9----------------|
D|--4---4-4/7----7-7/9----9-9/7--7/9--9----------------|
A|--4---4-4/7----7-7/9----9-9/5--5/7--7----------------|
E|--2---2-2/5----5-5/7----7-7/-------------------------|

E|-----------------------------------------------------|
B|-----------------------------------------------------|
G|--9/11--11--11-11-11--11-11-11-11--11--11/-----------|
D|--9/11--11--11-11-11--11-11-11-11--11--11/-----------|
A|--7/-9---9---9--9--9---9--9--9--9---9---9/-----------|
E|-----------------------------------------------------|

E|-----------------------------------------------------|
B|-----------------------------------------------------|
G|-----------------11-11-11-11--11-11------------------|
D|--7--7--7-7-7----11-11-11-11--11-11------------------|
A|--7--7--7-7-7-----9--9--9--9---9--9------------------|
E|--5--5--5-5-5----------------------------------------|

2X



VERS
4X
E|-----------------------------------------------------|
B|-----------------------------------------------------|
G|------------------------------------------9----------|
D|4--------------4-4-4-4-4-4--4/7---------7-9-9-9-9-9--|
A|4--4-4-4-4-4-4-4-4-4-4-4-4--4/7-7-7-7-7-7-7-7-7-7-7--|
E|2--2-2-2-2-2-2-2-2-2-2-2-2--2/5-5-5-5-5-5------------|
   PM-----------------------|     |-------|  |-------|
1.THERE WA A TIME LOOKING THROUGH MYSELF WANTING TO PRETEND
IF I ESCAPED I COULD FILL MY SELF I DON'T THINK YOU CAND
BEEN FARE AND WIDE BUT THAT HOLE INSIDE NEVER REALLY LEAVES
(WHEN)I WENT AWAY WHAT I REALLY LEFT LEFT BEHINDE WAS ME

2.EACH PASSING DAY  EVERY PASSING FACE SEEMS LIKE SUCH A BLUR.I LONG TO BE     HOME  SILENTLY    LYING NEXT TO HER JUST TO GET BACK   BY HER   SIDE IS ALL   ALL I NEED TO   BE. (WHEN)I WENT AWAY WHAT I REALLY LEF LEFT BEHINDE WAS ME


[ Tab from: http://www.guitartabs.cc/tabs/o/offspring/million_miles_away_tab_ver_8.html ]
   PRE-CHORUS
E|-----------------------------------------------------|
B|-----------------------------------------------------|
G|--4--4/6-6--6/7--7--7/6--6/9--9--9-9-9-9-9--9--9--9-9|
D|--X--X/X-X--X/X--X--X/X--X/9--9--9-9-9-9-9--9--9--9-9|
A|--2--2/4-4--4/5--5--5/4--4/7--7--7-7-7-7-7--7--7--7-7|
E|-----------------------------------------------------|
                                    
                               1.ITS TELLING ME TO BE  
                               2.I NEED TO BE GETTING 
E|-----------------------------------------------------|
B|-----------------------------------------------------|
G|-4--4/6--6--6/7--7--7/6--6--6/9----------------------|
D|-X--X/X--X--X/X--X--X/X--X--X/9----------------------|
A|-2--2/4--4--4/5--5--5/4--4--4/7----------------------|
E|-----------------------------------------------------|

   OOOOOOOONNNNNNNNN MYYYY WAY
E|-----------------------------------------------------|
B|-----------------------------------------------------|
G|--------------------------------------------9-9-9-9--|
D|9-9-9-9-9-9-9-9-9-9-9-9-9-9-9-9-9-9-9-9-9-9-9-9-9-9--|
A|7-7-7-7-7-7-7-7-7-7-7-7-7-7-7-7-7-7-7-7-7-7-7-7-7-7--|
E|-----------------------------------------------------|
 PM--------------------------------------------------|
                            HOOOOOOOOOOOOOOOME
CHORUS 2X
E|-----------------------------------------------------|
B|-----------------------------------------------------|
G|-11-11-11-11-11-11-11-11-------------9-9-9-9---------|
D|-11-11-11-11-11-11-11-11----7-7-7-7--9-9-9-9---------|
A|--9--9--9--9--9--9--9--9----7-7-7-7--7-7-7-7---------|
E|----------------------------5-5-5-5------------------|
   (OH)     (OH)              MILLION MILES AWAY    

E|-----------------------------------------------------|
B|-----------------------------------------------------|
G|-----------------------------------------------------|
D|4----------4/7----------7/9--------------------------|
A|4-44444444-4/7-77777777-7/9-99999999-----------------|
E|2-22222222-2/5-55555555-5/7-77777777-----------------|
        1.I CAN'T TAKE I CAN'T TAKE OH OH
        2.I CAN'T STAY I CAN'T STAY OH OH

E|-----------------------------------------------------|
B|-----------------------------------------------------|
G|-7-7-7-7/9-9-9-9-9/11--------------------------------|
D|-7-7-7-7/9-9-9-9-9/11--------------------------------|
A|-5-5-5-5/7-7-7-7-7/-9--------------------------------|
E|-----------------------------------------------------|

   MILLION MILES AWAY
SOLO 2X
E|-----------------------------------------------------|
B|-----------------------------------------------------|
G|16B--(16)/14---14/11-11--(11)-16B-(16)-14-14-14/16-16|
D|16B--(16)/14---14/11-11--(11)-16B-(16)-14-14-14/16-16|
A|-----------------------------------------------------|
E|-----------------------------------------------------|
3X
E|-----------------------------------------------------|
B|-----------------------------------------------------|
G|-----------------------------------------------------|
D|16-16/19--16-16-16-16-14H16-19-19-19-19--------------|
A|-----------------------------------------------------|
E|-----------------------------------------------------|


E|-----------------------------------------------------|
B|--10------12-----9---5-------------------------------|
G|--12B-----14B---11B--7B------------------------------|
D|-----------------------------------------------------|
A|-----------------------------------------------------|
E|-----------------------------------------------------|
Comments