Offspring - Long Way Home Chords & Tabs

 

Long Way Home Chords & Tabs

Offspring Chords & Tabs

Version: 1 Type: Tab 0 ratings
1 star 2 stars 3 stars 4 stars 5 stars
comments

Long Way Home Tab

   
Artist: The Offspring
Title: Long Way Home
Album: Splinter
Tabber: danc446 (@yahoo.com)

Riff A (INTRO)
e|--------------------------------------|
B|--------------------------------------|
G|-12-11-9-7-7/9--9-12-11-9-7-9-7-4-7-9-|
D|--x--x-x-x-x-x--x--x--x-x-x-x-x-x-x-x-|
A|-10--9-7-5-5/7--7-10--9-7-5-7-5-2-5-7-|
E|--------------------------------------|

VERSE
e|-------------------------------|
B|-------------------------------|
G|-9-9-9-7-9-9-9---------5-5-7-7-|
D|-9-9-9-7-9-9-9-7-7-7-7-5-5-7-7-|  x3
A|-7-7-7-5-7-7-7-7-7-7-7-3-3-5-5-|
E|---------------5-5-5-5---------|

e|-------------------------------|
B|-------------------------------|
G|-12-12-12-12-5-5-5-5-7-7-7-7---|
D|-12-12-12-12-5-5-5-5-7-7-7-7---|
A|-10-10-10-10-3-3-3-3-5-5-5-5---|
E|-------------------------------|

CHORUS
e|--------------------------------------|
B|--------------------------------------|
G|-9-9-9-9-12-12-12-12-7-7-7-7----------|
D|-9-9-9-9-12-12-12-12-7-7-7-7--7-7-7-7-|  x3
A|-7-7-7-7-10-10-10-10-5-5-5-5--7-7-7-7-|
E|------------------------------5-5-5-5-|
[ Tab from: http://www.guitartabs.cc/tabs/o/offspring/long_way_home_tab.html ]
e|--------------|
B|--------------|   (CHORUS 1,3)
G|--5:-7-7-7-7--|
D|--5:-7-7-7-7--|
A|--3:-5-5-5-5--|
E|--------------|

e|---------------------------------------|
B|---------------------------------------|  (CHORUS 2 Only)
G|--5-5-5-5-5-5-5-5-5-7-7-7-7-7-7-7-7-9--|
D|--5-5-5-5-5-5-5-5-5-7-7-7-7-7-7-7-7-9--|
A|--3-3-3-3-3-3-3-3-3-5-5-5-5-5-5-5-5-7--|
E|---------------------------------------|

BRIDGE
Lead Riff
e|--------------------------------------|
B|--------------------------------------|  
G|--12--11--7-9-9--7-9-9--7-9-9--7-9-9--| Use all octaves 
D|--x---x---7-9-9--7-9-9--7-9-9--7-9-9--| first time, then
A|--10--9---5-7-7--5-7-7--5-7-7--5-7-7--| use the chords.
E|--------------------------------------|

Rhythm riff
e|-----------------|
B|-----------------|
G|-99-7-99-7-99----| 
D|-99-7-99-7-99----| 
A|-77-5-77-5-77----|
E|-----------------|

  Both join for
e|----------------------------------------------------|
B|----------------------------------------------------|
G|-5-5-5-5-5-5-5-5-7-7-7-7-7-7-7-7-4-4-4-4-4-4-4-4-4--|
D|-5-5-5-5-5-5-5-5-7-7-7-7-7-7-7-7-4-4-4-4-4-4-4-4-4--|
A|-3-3-3-3-3-3-3-3-5-5-5-5-5-5-5-5-2-2-2-2-2-2-2-2-2--|        
E|----------------------------------------------------|

Then Repeat CHORUS and done!
Comments