Offspring - Living In Chaos Chords & Tabs

 

Living In Chaos Chords & Tabs

Offspring Chords & Tabs

Version: 5 Type: Tab 0 ratings
1 star 2 stars 3 stars 4 stars 5 stars
comments

Living In Chaos Tab

tune down 1/2 step

Riff 1
Eb----------------------------------------------------------------------
Bb----------------------------------------------------------------------
Gb-------2-2------------------------2-2-2p0-----------------------------
Db---------------------4-4--------------------2h4-4-4-4/5---------------
Ab----------------------------------------------------------------------
Eb---0h2-------0-0-0h2------0-0-0h2-------------------------------------


Riff 2
|---------------------------------------------------------------------
|---------------------------------------------------------------------
|-----------11--------------11---------------11---9s-11-11-11-12-11---
|-----------11--------------11---------------11---9s-11-11-11-12-11---
|-----------9----------------9---------------9----7s-9--9--9--10-9----
|-0h2--x-x-----0-0-0h2-x-x-----0-0-0h2-x-x----------------------------


Riff 3
|--------------------------------------------------
|--------------------------------------------------
|---7-7-7-7-7-7-7-7-7--9-9-9-9-9-9-9-9-------------
|---7-7-7-7-7-7-7-7-7--9-9-7-9-9-9-9-9-------------
|---5-5-5-5-5-5-5-5-5--7-7-7-7-7-7-7-7-------------
|--------------------------------------------------
[ Tab from: http://www.guitartabs.cc/tabs/o/offspring/living_in_chaos_tab_ver_5.html ]
Riff 4
|-----9-10-9------------------------------------------------------------
|-----------10-9--------------------------------------------------------
|-----------------10-11-------------------------------------------------
|-----------------------------------------------------------------------
|-----------------------------------------------------------------------
|-----------------------------------------------------------------------

Riff 5
|-----------------------------------------------------
|----------------3------------------------------------
|-----4-4-4-4-4--2---2-2-2-2-2------------------------
|-----4-4-4-4-4--0---2-2-2-2-2----5-5-5-5-5s-7--------
|-----2-2-2-2-2------0-0-0-0-0----5-5-5-5-5s-7--------
|---------------------------------3-3-3-3-3s-5--------

Riff 6
|---------------------------------------------------------------------
|---------------------------------------------------------------------
|-----------11--------------11---------------11-----------------------
|-----------11--------------11---------------11----5-5-5s-7-----------
|-----------9----------------9---------------9-----5-5-5s-7-----------
|-0h2--x-x-----0-0-0h2-x-x-----0-0-0h2-x-x---------3-3-3s-5-----------

Order
Riff 1x2
Riff 2x2
Riff 3
Riff 4x6
Riff 2x4
Riff 4x4
Riff 2x4
Riff 5x2
Riff 6x3
Riff 1
Riff 4x4
Riff 5x2
Riff 6x4
Comments