Offspring - Living In Chaos Chords & Tabs

 

Living In Chaos Chords & Tabs

Offspring Chords & Tabs

Version: 1 Type: Bass Tab 0 ratings
1 star 2 stars 3 stars 4 stars 5 stars
comments

Living In Chaos Bass Tab

Song: Living In Chaos
Artist: The Offspring
Album: Conspracy of One
Tabbed by: Nick S. (greendayns@hotmail.com)

This song is tight when you play it correctly and in
time. I'm pretty sure about most of this stuff, but
i'm open to corrections. If you have some e-mail me.

By the way, in the pre-verse, those are ones and not elevens.

After Guitar Intro

G|---------------|
D|---------------|
A|---------------|
E|-1>>13---------|


Pre-Verse 1

G|---------------------------------------|
D|---------------------------------------|
A|----8-----8-----8----------------------|
E|-11----11----11----1>222-4-2-----------|


Pre-Verse 2

G|--------------------------|
D|--------------------------|
A|--44-4-4-4--66-6-6-6------|
E|--------------------------|

Verse
[ Tab from: http://www.guitartabs.cc/tabs/o/offspring/living_in_chaos_btab.html ]
G|---------------------------------------|
D|-------------6-5-----------------------|
A|--6>88--6>88-----7-8-3-3-3-------------|
E|---------------------------------------|

Chorus

G|---------------------------------------|
D|-------6---------------6---------------|
A|--6>88----6>88-8--6>88----6>888-9------|
E|---------------------------------------|

Post Chorus

G|---------------------------------------|
D|---------------------------------------|
A|--6-6-666--4-44-444--4-4-444--2-22-2-2-|
E|---------------------------------------|

Pre-Verse 1 altered

G|---------------------------------------|
D|---------------------------------------|
A|----8-----8-----8----------------------|
E|-11----11----11----2~~~-4~~~-----------|

~=let ring

Order

After Guitar Intro (1x)
Pre-Verse 1 (2x)
Pre-Verse 2 (1x)
Verse (6x)
Chorus (4x)
Verse (4x)
Chorus (4x)
Post Chorus (2x) -Play Slow-
Pre-Verse 1 altered (4x)
Verse (6x)
Post Chorus (2x) -Play Slow-
Pre-Verse 1 altered (3x)

That should be it, please feel
free to make suggestions...

Comments