Offspring - Lightning Rod Chords & Tabs

 

Lightning Rod Chords & Tabs

Offspring Chords & Tabs

Version: 2 Type: Tab 0 ratings
1 star 2 stars 3 stars 4 stars 5 stars
comments

Lightning Rod Tab

Hey whats up guys this a cool song off their new album Splinter. anyway here it goes.

Tabbed by: FrickinAJ
Email: Frickinaj@hotmail.com

Tuning:Standard
[ Tab from: http://www.guitartabs.cc/tabs/o/offspring/lightning_rod_tab_ver_2.html ]
 INTRO he's using a delay effect on this part
e|--------------------------------------------------------------------------
B|--------------------------------------------------------------------------
G|--------------------------------------------------------------------------
D|-3-3-3-3-3-3-------------------------------------------------------------
A|-3-3-3-3-3-3--------------------------------------------------------------
E|-1-1-1-1-1-1--------------------------------------------------------------
 VERSE, normal
e|--------------------------------------------------------------------------
B|--------------------------------------------------------------------------
G|-1010101010101010----------66666666---------------------------------------
D|-1010101010101010-88888888-66666666-33333333------------------------------
A|-8 8 8 8 8 8 8 8--88888888-44444444-33333333------------------------------
E|------------------66666666----------11111111------------------------------
 CHORUS
e|--------------------------------------------------------------------------
B|--------------------------------------------------------------------------
G|------8~~~--------8~~~-------6538656~~~8~~~6~~~8~~~-----------------------
D|3356538~~~-335653-8~~~-3356536538656~~~8~~~6~~~8~~~-----------------------
A|3356536~~~-335653-6~~~-3356534316434~~~6~~~4~~~6~~~-----------------------
E|113431-----113431------113431---------------------------------------------
 RIFF
e|--------------------------------------------------------------------------
B|--------------------------------------------------------------------------
G|-13 13 12 12 10 10 13 13 12 12 13 13 13 13 12 12 13 13 12 12 13 12 10-10- 
D|--x -x -x -x  x  x -x -x -x -x -x -x -x -x -x -x -x -x -x -x -x -x  x--x--
A|-11 11 10 10  8  8 11 11 10 10 11 11 11 11 10 10 11 11 10 10 11 10  8- 8 -
E|--------------------------------------------------------------------------

 ORDER
intro x1
verse x2
chorusx1
riff  x2
verse x2
chorusx1
verse x2
chorusx1
riff  x1

| /  slide up
| \  slide down
| ~  let ring
| x  Mute note
============================================================================
Comments