Offspring - Lightning Rod Chords & Tabs

 

Lightning Rod Chords & Tabs

Offspring Chords & Tabs

Version: 1 Type: Tab 0 ratings
1 star 2 stars 3 stars 4 stars 5 stars
comments

Lightning Rod Tab

   
-----------------------------------------------------------------------------
			     Lightning Rod - The Offspring
-----------------------------------------------------------------------------
Tabbed by: Al Fitton
Email: gamester_f@hotmail.com <- send corrections here

Tuning: E

e|--------------------------------------------------------------------------|
B|--------------------------------------------------------------------------|
G|--------------------------10-10-10-10---------6-6-6-6----------      -----|
D|--3---3---3---3---3---3---10-10-10-10-8-8-8-8-6-6-6-6-3-3-3-3--  x2  -----|
A|--3---3---3---3---3---3----8--8--8--8-8-8-8-8-4-4-4-4-3-3-3-3--      -----|
E|--1---1---1---1---1---1---------------6-6-6-6---------1-1-1-1-------------|

Chorus
[ Tab from: http://www.guitartabs.cc/tabs/o/offspring/lightning_rod_tab.html ]
e|----------------------------------------------------------------|
B|----------------------------------------------------------------|
G|---------------8------------------8------------------6-6-6--8---|
D|-3-3-3--6-6-6--8----3-3-3--6-6-6--8----3-3-3--6-6-6--6-6-6--8---|
A|-3-3-3--6-6-6--6----3-3-3--6-6-6--6----3-3-3--6-6-6--4-4-4--6---|
E|-1-1-1--4-4-4-------1-1-1--4-4-4-------1-1-1--4-4-4-------------|

e|-------------------------------------------------------------|
B|-------------------------------------------------------------|
G|--6---8---6---8---                 --------------------------|
D|--6---8---6---8--- x2 second verse --------------------------|
A|--4---6---4---6---                 --------------------------|
E|-------------------------------------------------------------|

riff (above verse chords)

e|---------------------------------------------------------|
B|--9-8----9-8-9--9-8-9-8-9-8------------------------------|
G|------10--------------------10--------    ---------------|
D|-------------------------------------- x2 ---------------|
A|--------------------------------------    ---------------|
E|---------------------------------------------------------|

Second Verse (main Chords)
Chorus (Chorus Chords)
Riff 
Bridge (main Chords)
Chorus (Chorus Chords)
End on main Chords & Riff
Comments