Offspring - Lapd Chords & Tabs

 

Lapd Chords & Tabs

Offspring Chords & Tabs

Version: 6 Type: Tab 0 ratings
1 star 2 stars 3 stars 4 stars 5 stars
comments

Lapd Tab

   
----------------------------------------------------------------------------
			  LAPD - The Offspring
----------------------------------------------------------------------------
Tabbed by: Clayton Pennington
Email: offspring_punk08@hotmail.com

Tuning: Standard

Intro
e|--------------------------------------------------------------|
B|--------------------------------------------------------------|
G|--------------------------------------------------------------|
D|--------------------------------------------------------------|
A|------------------------Pick Slide----------------------------|
E|-7777-7-7-7777777--(x8)---------------------------------------|
   xxxx x x xxxxxxx

Pre Verse x4
e|--------------------------------------------------------------|
B|--------------------------------------------------------------|
G|--------------------------------------------------------------|
D|-9-9-999-1010-77-7/9------------------------------------------|
A|-9-9-999-1010-77-7/9------------------------------------------|
E|-7-7-777-8-8--55-5/7------------------------------------------|

Verse x7
e|--------------------------------------------------------------|
B|--------------------------------------------------------------|
G|--------------------------------------------------------------|
D|-9999999-1010-77777-------------------------------------------|
A|-9999999-1010-77777-------------------------------------------|
E|-7777777-8-8--55555-------------------------------------------|
   xxxxxxx x x  xxxxx

Pre Chorus
e|--------------------------------------------------------------|
B|--------------------------------------------------------------|
G|--------------14-14-------------------------------------------|
D|-9999999-1010-14-14-------------------------------------------|
A|-9999999-1010-12-12-------------------------------------------|
E|-7777777-8-8--------------------------------------------------|
   xxxxxxx

Chorus x3
e|--------------------------------------------------------------|
B|--------------------------------------------------------------|
G|-1616-1515-1414----9-9-7-7------------------------------------|
D|--x-x--x-x--x-x----9-9-7-7------------------------------------|
A|-1414-1313-1212----7-7-5-5------------------------------------|
E|--------------------------------------------------------------|

Post Chorus
e|--------------------------------------------------------------|
B|--------------------------------------------------------------|
G|---77---------------------------------------------------------|
D|-7-77-9-9-99--------------------------------------------------|
A|-7-55-9-9-99--------------------------------------------------|
E|-5----7-7-77--------------------------------------------------|

Pre Verse x2
e|--------------------------------------------------------------|
B|--------------------------------------------------------------|
G|--------------------------------------------------------------|
D|-9-9-999-1010-77-7/9------------------------------------------|
A|-9-9-999-1010-77-7/9------------------------------------------|
E|-7-7-777-8-8--55-5/7------------------------------------------|

Verse x3
e|--------------------------------------------------------------|
B|--------------------------------------------------------------|
G|--------------------------------------------------------------|
D|-9999999-1010-77777-------------------------------------------|
A|-9999999-1010-77777-------------------------------------------|
E|-7777777-8-8--55555-------------------------------------------|
   xxxxxxx x x  xxxxx

Pre Chorus
e|--------------------------------------------------------------|
B|--------------------------------------------------------------|
G|--------------14-14-------------------------------------------|
D|-9999999-1010-14-14-------------------------------------------|
A|-9999999-1010-12-12-------------------------------------------|
E|-7777777-8-8--------------------------------------------------|
   xxxxxxx

Chorus x3
e|--------------------------------------------------------------|
B|--------------------------------------------------------------|
G|-1616-1515-1414----9-9-7-7------------------------------------|
D|--x-x--x-x--x-x----9-9-7-7------------------------------------|
A|-1414-1313-1212----7-7-5-5------------------------------------|
E|--------------------------------------------------------------|
[ Tab from: http://www.guitartabs.cc/tabs/o/offspring/lapd_tab_ver_6.html ]
Post Chorus
e|--------------------------------------------------------------|
B|--------------------------------------------------------------|
G|---77---------------------------------------------------------|
D|-7-77-9-9-99--------------------------------------------------|
A|-7-55-9-9-99--------------------------------------------------|
E|-5----7-7-77--------------------------------------------------|

Pre Verse x2
e|--------------------------------------------------------------|
B|--------------------------------------------------------------|
G|--------------------------------------------------------------|
D|-9-9-999-1010-77-7/9------------------------------------------|
A|-9-9-999-1010-77-7/9------------------------------------------|
E|-7-7-777-8-8--55-5/7------------------------------------------|

Solo 
e|-------------------------------------------1414-1212------1212----------|
B|-1212-1515-1414------1414------12b-x2-1212-----------1313------1313-15b-|
G|----------------1414------1414------------------------------------------|
D|------------------------------------------------------------------------|
A|------------------------------------------------------------------------|
E|------------------------------------------------------------------------|

e|------------------------------------------------------------------------|
B|-1212-1515-1414------1414------12b-12b-12-12-12-1212\11/12-12-12-12-19\-|
G|----------------1414------1414------------------------------------------|
D|------------------------------------------------------------------------|
A|------------------------------------------------------------------------|
E|------------------------------------------------------------------------|

Chorus x3
e|--------------------------------------------------------------|
B|--------------------------------------------------------------|
G|-1616-1515-1414----9-9-7-7------------------------------------|
D|--x-x--x-x--x-x----9-9-7-7------------------------------------|
A|-1414-1313-1212----7-7-5-5------------------------------------|
E|--------------------------------------------------------------|

Post Chorus
e|--------------------------------------------------------------|
B|--------------------------------------------------------------|
G|---77---------------------------------------------------------|
D|-7-77-9-9-99--------------------------------------------------|
A|-7-55-9-9-99--------------------------------------------------|
E|-5----7-7-77--------------------------------------------------|

Pre Verse x2
e|--------------------------------------------------------------|
B|--------------------------------------------------------------|
G|--------------------------------------------------------------|
D|-9-9-999-1010-77-7/9------------------------------------------|
A|-9-9-999-1010-77-7/9------------------------------------------|
E|-7-7-777-8-8--55-5/7------------------------------------------|

Verse x7
e|--------------------------------------------------------------|
B|--------------------------------------------------------------|
G|--------------------------------------------------------------|
D|-9999999-1010-77777-------------------------------------------|
A|-9999999-1010-77777-------------------------------------------|
E|-7777777-8-8--55555-------------------------------------------|
   xxxxxxx x x  xxxxx

Pre Chorus
e|--------------------------------------------------------------|
B|--------------------------------------------------------------|
G|--------------14-14-------------------------------------------|
D|-9999999-1010-14-14-------------------------------------------|
A|-9999999-1010-12-12-------------------------------------------|
E|-7777777-8-8--------------------------------------------------|
   xxxxxxx

Chorus x3
e|--------------------------------------------------------------|
B|--------------------------------------------------------------|
G|-1616-1515-1414----9-9-7-7------------------------------------|
D|--x-x--x-x--x-x----9-9-7-7------------------------------------|
A|-1414-1313-1212----7-7-5-5------------------------------------|
E|--------------------------------------------------------------|

Ending x3
e|--------------------------------------------------------------|
B|--------------------------------------------------------------|
G|---77---------------------------------------------------------|
D|-7-77-9-9-99--------------------------------------------------|
A|-7-55-9-9-99--------------------------------------------------|
E|-5----7-7-77--------------------------------------------------|

| /  slide up
| \  slide down
| h  hammer-on
| p  pull-off
| ~  vibrato
| +  harmonic
| x  Mute note
============================================================================
Comments