Offspring - Lapd Chords & Tabs

 

Lapd Chords & Tabs

Offspring Chords & Tabs

Version: 1 Type: Tab 0 ratings
1 star 2 stars 3 stars 4 stars 5 stars
comments

Lapd Tab

   
#----------------------------------PLEASE NOTE--------------------------------#
#This file is the author's own work and represents their interpretation of the#
#song. You may only use this file for private study, scholarship, or research.#
#-----------------------------------------------------------------------------#
#-- File created with Instab - http://www.pconline.com/~smcarey/instab.html --#
#-----------------------------------------------------------------------------#

Author/Artist: offspring
Title: l.a.p.d.
Album: ignition
Transcribed by: dave cecconi
Email: dukebloodevils@aol.com

During the chord progression, don't stop strumming when you change the chords...noodles just slides from chord to chord while continuing his strum.
Also, i'm not too sure about the solo...i can't find my ignition cd so i'm not to sure but it sounds ok.

-|-------|-------|-------|----------------------------------------------------
-|-------|-------|-------|----------------------------------------------------
-|-------|-------|-------|----------------------------------------------------
-|---9---|--10---|---8---|----------------------------------------------------
-|---9---|--10---|---8---|----------------------------------------------------
-|---7---|---8---|---6---|----------------------------------------------------
 Intro-strum open E & A w/ p.m. the B-C-A is the verse chords                 
[ Tab from: http://www.guitartabs.cc/tabs/o/offspring/lapd_tab.html ]
-|----------------------------------------------------------------------------
-|--------13-13-12-12-------12-12---------------------------------------------
-|--12-12-------------12-12-------12-12-12/14p0-------x2----------------------
-|----------------------------------------------------------------------------
-|----------------------------------------------------------------------------
-|----------------------------------------------------------------------------
 solo --- Ain't too hard                                                      

----------12-12-11-11-------11-11---------------------------------------------
----------------------12-12-------12-12-13b15r13-----x1-----------------------
----12-12---------------------------------------------------------------------
------------------------------------------------------------------------------
------------------------------------------------------------------------------
------------------------------------------------------------------------------
                                                                              

---------------------------------------------------------------------------|--
----------13-13-12-12-------12-12------------------------------------------|--
----12-12-------------12-12-------12-12-14\-----12-----12-12-12-9-9-9------|--
---------------------------------------------------------------------------|--
---------------------------------------------------------------------------|--
---------------------------------------------------------------------------|--
         Chorus - F#-F-E-B-A#   Asus4-C-B                                     

Comments