Offspring - Kick Him When Hes Down Chords & Tabs

 

Kick Him When Hes Down Chords & Tabs

Offspring Chords & Tabs

Version: 4 Type: Tab 0 ratings
1 star 2 stars 3 stars 4 stars 5 stars
comments

Kick Him When Hes Down Tab

|---------------------------------------------------------------------------|
|------------------OFFSPRING : KICK HIM WHEN HE'S DOWN----------------------|
|---------------------------------------------------------------------------|

BAND: OFFSPRING
SONG: KICK HIM WHEN HE'S DOWN
ALBUM: OFFSPRING


INTRO

E|---------------------|
B|---------------------|
G|--11|11-9-4-|---11|--|      X 2
D|--11|11-9-4-|44-11|--|
A|---9|-9-7-2-|44--9|--|
E|------------|22---|--|
              |     |
              | X 4 |

VERSE
[ Tab from: http://www.guitartabs.cc/tabs/o/offspring/kick_him_when_hes_down_tab_ver_4.html ]
E|---------------------|
B|---------------------|     ______ = PLAY MANY TIMES
G|--11-9-4-11________--|
D|--11-9-4-11________--|\
A|---9-7-2--9________--| \  
E|---------------------|  \________
          X 2                      \
E|----------------------------|     PLAY 2 TIMES
B|----------------------------|    /
G|--11-9-4-777-2-999-4-9-11:--|   /
D|--11-9-4-777-2-999-4-9-11:--|  /
A|---9-7-2-555-0-777-2-7--9:--| /
E|----------------------------|/      : = LET IT RING

CHORUS

E|------------------|
B|------------------|
G|--11|11-77----99--|         PLAY 6 TIMES
D|--11|11-77-77-99--|
A|---9|-9-55-77-77--|
E|-----------55-----|   

BRIDGE - SAME AS THE INTRO X 2

VERSE

CHORUS

BRIDGE

THE "SOLO" THING

E|------------------------------|
B|------------------------------|
G|--11-11|11|11-14|14-9-999-44--|
D|--11-11|11|11-14|14-9-999-44--|  X 3
A|---9--9|-9|-9-12|12-7-777-22--|
E|------------------------------|

I COULD NOT FIND OUT THE BIT AFTER THAT
BUT THEN THE VERSE AND THE CHORUS COMES!!!!
I'VE ALSO TABBED: OFFSPRING: ONE FINE DAY (SOLO)I'TS WRONG!!!
                             ONE FINE DAY TAB (THE LAST ONE I THINK)
                             SOMETHING TO BELIVE IN TAB

IF YOU WANT TO SAY ANYTHING ABOUT THE TAB PLEASE SEND A E-MAIL
TO: JOACHIMCARLSEN@HOTMAIL.COM

I HOPE YOU LIKE IT!!!!!!!!
Comments