Offspring - Kick Him When Hes Down Chords & Tabs

 

Kick Him When Hes Down Chords & Tabs

Offspring Chords & Tabs

Version: 3 Type: Tab 0 ratings
1 star 2 stars 3 stars 4 stars 5 stars
comments

Kick Him When Hes Down Tab

   
You should listen to the song when you're trying to learn it.
standerd tuning.
/ slide  x scratch
Intro  (Try to work out the strumming, the rest is easy though)
E|----------------------------------|
B|----------------------------------|
G|-13---11---14---11-----9-8-7-6-5--|
D|-13---11---14---11-----9-8-7-6-5--|
A|-11---9----12---9------7-6-5-4-3--|
E|

Main riff
E|------------------------------|
B|------------------------------|
G|-11---9--4-xxx----------------|  x2
D|-11---9--4-xxx-4-x-4-x-4-x-4--|
A|-9----7--2-xxx-4-x-4-x-4-x-4--|
E|-----------xxx-2-x-2-x-2-x-2--|

"Hey you're a riddle....."
verse
E|-------------------------------------|
B|-------------------------------------|
G|-------------------------------------|
D|-11--99--4--11--9/11--11-9-4-7--6/8--|
A|-11--99--4--11--9/11--11-9-4-7--6/8--|
E|-9---77--2--9---7/9---9--7-2-5--4/6--|
[ Tab from: http://www.guitartabs.cc/tabs/o/offspring/kick_him_when_hes_down_tab_ver_3.html ]
"When the rain comes...."
chorus
E|------------------------------------------|
B|------------------------------------------|
G|-11-7-4-9--11-7-4-9--11-7-4-9999-99999999-|
D|-11-7-4-9--11-7-4-9--11-7-4-9999-99999999-| (as many times as you think
A|-9--5-2-7--9--5-2-7--9--5-2-7777-77777777-|          neccessary)
E|------------------------------------------|

Bridge
E|--------------------------------------------------------------------------|
B|--------------------------------------------------------------------------|
G|-11-1414--9---4-11-1414--9---4---9-9999999-11-1111111111-13-13131313-14/18|
D|-11-1414--9---4-11-1414--9---4---9-9999999-11-1111111111-13-13131313-14/18|
A|-9--1212--7---2-9--1212--7---2---7-7777777-9--9-9-9-9-9--11-11111111-12/16|
E|--------------------------------------------------------------------------|

Thats it you just need to work out what goes where.
Any comments? e-mail me.
Comments