Offspring - Jennifer Lost The War Chords & Tabs

 

Jennifer Lost The War Chords & Tabs

Offspring Chords & Tabs

Version: 2 Type: Tab 0 ratings
1 star 2 stars 3 stars 4 stars 5 stars
comments

Jennifer Lost The War Tab

   
#----------------------------------PLEASE NOTE---------------------------------#
#This file is the author's own work and represents their interpretation of the #
#song. You may only use this file for private study, scholarship, or research. #
#------------------------------------------------------------------------------#

Artist: Offspring
Song: Jennifer lost the war
Tabbed by: John Leadman


Standard Tuning

The little intro thing is E(hi) D C#, D C# B

Chords definition:

   E(lo)  A  B  C  C#  D   E(hi)
|--0---------------------------------------------|
|--0------2--4--5--6---7---9---------------------|
|--4------2--4--5--6---7---9---------------------|
|--2------2--4--5--6---7---9---------------------|
|--2------0--2--3--4---5---7---------------------|
|--0---------------------------------------------|

There's a lot of cute little riffs in this song

Riff 1 - This is played halfway through each chorus
It isn't right either, but it sounds pretty close
               )
|-9p7-9p7-9p7-10-|
|----------------|
|----------------|
|----------------|
|----------------|
|----------------|
[ Tab from: http://www.guitartabs.cc/tabs/o/offspring/jennifer_lost_the_war_tab_ver_2.html ]
Riff 2 -- This is played after the first chorus
Play it fast, it's hard to tell the first part of it, but even if you ca
play it, mess around in an E blues scale, and it'll sound fine.
                                       )  )
|--------------------)--)-----)--)----15-15-15-12--)--)-----------------
|-------------------12-12----12-12----------------15-15-15-12-----------
|-------------------12-12----12-12----------------------------14p12-----
|-------------12-14-------14-------14-------------------------------14-X
|----10/12-14-----------------------------------------------------------
|-12--------------------------------------------------------------------

Riff 3 -- This is played after the second chorus
This is all I could make of it, you'll have to play it at lightning spee
and even then it sounds wrong.  At least it doesn't last very long :)

|-----------------------------------------------------------------------
|------------------8-----7------------------8-----7-----8-----7---------
|-----10-----9-----------------10-----9-----------------------------10--
|-7-7----7-7---7-7---7-7---7-7----7-7---7-7---7-7---7-7---7-7---7-7-----
|-----------------------------------------------------------------------
|-----------------------------------------------------------------------

Riff 4 -- This is played after the bridge, it's kinda cool, just bend th
lower string up to the point where it matches the pitch of the upper str

|-------7----9---12---14--16--|
|-7-----10---12--15---17--19--|
|-9---------------------------|
|-----------------------------|
|-----------------------------|
|-----------------------------|

Riff 5 -- This is played at the end of the song, it's a nice ending

|-12-12-10-9~~-10-10-9-7~~--|
|---------------------------|
|---------------------------|
|---------------------------|
|---------------------------|
|---------------------------|
Comments