Offspring - Jennifer Lost The War Chords & Tabs

 

Jennifer Lost The War Chords & Tabs

Offspring Chords & Tabs

Version: 1 Type: Tab 0 ratings
1 star 2 stars 3 stars 4 stars 5 stars
comments

Jennifer Lost The War Tab

#----------------------------------PLEASE NOTE---------------------------------#
#This file is the author's own work and represents their interpretation of the #
#song. You may only use this file for private study, scholarship, or research. #
#------------------------------------------------------------------------------#

From: Diego Benítez
Group: Offspring
Album: The Offspring
Re-released: 1995 
Track: 1
Title: jennifer lost the war

p - pull off
: - let ring
pm - palm mute
^ - bend
h - hammer on


intro

|--------------------------------------------------|
|--------------------------------------------------|
|-9-9-9-9-7-6-6-6-6-6-7-7-7-7-6-4:---4:---4:---4:--|
|-7-7-7-7-5-4-4-4-4-4-5-5-5-5-4-2:---4:---4:---4:--|
|------------------------------------2:---2:---2:--|
|--------------------------------------------------|

verse
                           pm_______|
|-0:--------------------------------|
|-0:--------------------------------|
|-4:---2:---7:--9:--5:--7:--4-4-4-4-|
|-2:---2:---7:--9:--5:--7:--4-4-4-4-|
|-0:---0:---5:--7:--3:--5:--2-2-2-2-|
|-0:--------------------------------|

chorus

|--------------------------|-------------|
|--------------------------|-------------|
|-2--7-7-7-9-9-9-9-9-9-9-9-|-7:---7-4:---|
|-2--7-7-7-9-9-9-9-9-9-9-9-|-7:---7-4:---|
|-0--5-5-5-7-7-7-7-7-7-7-7-|-5:---5-2:---|
|--------------------------|-------------|

riff 1 - played half way through chorus
[ Tab from: http://www.guitartabs.cc/tabs/o/offspring/jennifer_lost_the_war_tab.html ]
|-9p7---------9p7--------|
|-----9p7-9-------9p7-9--|
|------------------------|
|------------------------|
|------------------------|
|------------------------|

riff 2 - after first chorus

|------------------------------------------------15^-15^-15-12-
|--------------------------------------------------------------
|-------------------12^-12^-12----12^-12^-12-------------------
|-------------12-14------------14------------14----------------
|----10/12-14--------------------------------------------------
|-12-----------------------------------------------------------

 ----------------------------|
 -15^-15^-15-12--------------|
 ---------------14p12h14-----|
 ------------------------14--|
 ----------------------------|
 ----------------------------|

riff 3 - after second verse

|-x-7-9-10-9-7-5-5-7-----------------|
|-x------------5-5-7-----------------|x2
|-x------------------9-9-x-x-x-x-4-4-|
|-x------------------7-7-x-x-x-x-2-2-|
|------------------------------------|
|------------------------------------|

riff 4 - a bit after riff 3

|------------------------22^--|
|--12^---15^---17^---19^------|
|-----------------------------|
|-----------------------------|
|-----------------------------|
|-----------------------------|

outro

|----------------------------------------|
|----------------------------------------|
|-9-9-9-9-7-6-6-6-6-6-7-7-7--7--6--4:----|
|-7-7-7-7-5-4-4-4-4-4-5-5-5--5--4--2:----|
|----------------------------------------|
|----------------------------------------|
Comments