Offspring - Jennifer Lost The War Chords & Tabs

 

Jennifer Lost The War Chords & Tabs

Offspring Chords & Tabs

Version: 1 Type: Bass Tab 0 ratings
1 star 2 stars 3 stars 4 stars 5 stars
comments

Jennifer Lost The War Bass Tab

Song: Jennifer lost the war
Artist: The Offspring
Album: The Offspring (1.1.1990)
Tabber: Me! 
Email: conspiracy.of.smash@gmail.com

intro  0:03
G-|-----------3X-------------------|----|
D-|--------------------------------|----|
A-|--------------------------------|----|
E-|-0-0-0-0-5-5-5-5-3-3-3-3-2-2-2-2|0---|
                
verse       (But nobody really cares...)                           
G|-------------------------------------------------------------------4-4---|
D|-------------------------------------------------------------------------|  
A|-----------0-------5-------7-------3-------5-------2-2-2-2-2-0-2-2-------|
E|---0---------------------------------------------------------------------|

verse-part 2  X3  
G|-----------------------------------------------|        
D|-----------------------------------------------|         
A|---0-0-0-0-0---5-5-5-5-5---7-7-7-7-7-7-7-7-7-7-|                                     
E|-----------------------------------------------|         

G|-----------------------------------------------------------------|
D|-----------------------------------------------------------------|
A|---5-5-5-5-5-5-5-5-5-5-5-5-5-5-5--2-2-2-2-2-2-2-2-2-2-2-2-2-2-2--|
E|-----------------------------------------------------------------|

solo          

G|------------------------------------------------------------------------|
D|------------------------------------------------------------------------|  
A|--------------0-0-0-0-0-0--5-5-5-5-5-5--7-7-7-7-7-7--10-10-10-10-10-10--|
E|-0-0-0-0-0-0------------------------------------------------------------|

G|----------------------------------------|
D|----------------------------------------|
A|--9-9-9-9-9-9--7-7-7-7-7-7-7-7-7-7-7-7--|
E|----------------------------------------|

verse2  2x (Phoebe lost the war...)                           
same as first verse part two, just that you play the first six notes 6x

then play
G|-------------------------------------------------------------------4-4---|
D|-------------------------------------------------------------------------|  
A|-----------0-------5-------7-------3-------5-------2-2-2-2-2-0-2-2-------|
E|---0---------------------------------------------------------------------|

G|-------------------------------------------------------------------4-4---|
D|-------------------------------------------------------------------------|  
A|-----------0-------5-------7-------3-------5-------2-2-2-2-2-0-2-2-------|
E|---0---------------------------------------------------------------------|
[ Tab from: http://www.guitartabs.cc/tabs/o/offspring/jennifer_lost_the_war_btab.html ]
G|-------------------------------------------------------------------4-4---|
D|-------------------------------------------------------------------------|  
A|-----------0-------5-------7-------3-------5-------2-2-2-2-2-0-2-2-------|
E|---0---------------------------------------------------------------------|

G|-----------------------------------------------------------------|
D|-----------------------------------------------------------------|
A|---5-5-5-5-5-5-5-5-5-5-5-5-5-5-5--2-2-2-2-2-2-2-2-2-2-2-2-2-2-2--|
E|-----------------------------------------------------------------|

G|-----------------------------------------------------------------|
D|-----------------------------------------------------------------|
A|---5-5-5-5-5-5-5-5-5-5-5-5-5-5-5--2-2-2-2-2-2-2-2-2-2-2-2-2-2-2--|
E|-----------------------------------------------------------------|

bridge    %=pause                                          
G|--------------2X-----------------|
D|---------------------------------|  
A|-2%2%2%2%2%2%2%2%0%0%0%0%--------|
E|-------------------------0%0%0%0%|

G|------------2X------------------------------------|
D|--------------------------------------------------|
A|-2-2-2-2-2---2-2-2-5--4--0-0-0-0-0-0--------------|
E|--------------------------------------0-0-0-0-0-0-|

bridge
G|---------4X---------|-|
D|--*-----------------|-|
A|-2-------2-2-2-5--4-|-|
E|--------------------|-|

G|-------------------------------------------------------------------4-4---|
D|-------------------------------------------------------------------------|  
A|-----------0-------5-------7-------3-------5-------2-2-2-2-2-0-2-2-------|
E|---0---------------------------------------------------------------------|

G|-------------------------------------------------------------------4-4---|
D|-------------------------------------------------------------------------|  
A|-----------0-------5-------7-------3-------5-------2-2-2-2-2-0-2-2-------|
E|---0---------------------------------------------------------------------|

G|-------------------------------------------------------------------4-4---|
D|-------------------------------------------------------------------------|  
A|-----------0-------5-------7-------3-------5-------2-2-2-2-2-0-2-2-------|
E|---0---------------------------------------------------------------------|

G|-----------------------------------------------------------------|
D|-----------------------------------------------------------------|
A|---5-5-5-5-5-5-5-5-5-5-5-5-5-5-5--2-2-2-2-2-2-2-2-2-2-2-2-2-2-2--|
E|-----------------------------------------------------------------|

G|-----------------------------------------------------------------|
D|-----------------------------------------------------------------|
A|---5-5-5-5-5-5-5-5-5-5-5-5-5-5-5--2-2-2-2-2-2-2-2-2-2-2-2-2-2-2--|
E|-----------------------------------------------------------------|

outro 
G----------------------------------------|
D---2------------------------------------|
A----------------------------------------|
E------------------------------------0---|

That's is, PM or comment or email me if there are any issues about the tab.
Comments