Offspring - Ixnay On The Hombre Album Chords & Tabs

 

Ixnay On The Hombre Album Chords & Tabs

Offspring Chords & Tabs

Version: 1 Type: Tab 0 ratings
1 star 2 stars 3 stars 4 stars 5 stars
comments

Ixnay On The Hombre Album Tab

   
Here is all of Ixnay On The Hombre by the Offspring. If any of this
does not come out right, it is the computers fault. Very very sorry
if it does.

(guide to notation is at the bottom)
THE MEANING OF LIFE

intro
-----------------------------------------------------|
-----------------------------------------------------|
-7--10-7-5-10--10-7-10-12--12>13>12-10-7-7-10-10-5-5-|
-7--10-7-5-10--10-7-10-12--12>13>12-10-7-7-10-10-5-5-|
-5--8--5-3-8---8--5-8--10--10>11>10-8--5-5-8--8--3-3-|
-----------------------------------------------------|

riff
-----------------------------------------------------------------|
-----------------------------------------------------------------|
-7-7-7-7-10-7-5-10-10-10-10-10-7-10-12-12-12-12-12>13>12---------|
-7-7-7-7-10-7-5-10-10-10-10-10-7-10-12-12-12-12-12>13>12---------|
-5-5-5-5-8--5-3-8--8--8--8--8--5-8--10-10-10-10-10>11>10-8-8-7-7-|
-----------------------------------------------------------------|
(contd)
----------|-----------------------|
----------|-----------------------|
---10-5>7+|-5>7+--5>7+--5>7+--5>7-|
---10-5>7+|-5>7+--5>7+--5>7+--5>7-|
-7-8--3>5+|-3>5+--3>5+--3>5+--3>5-|
----------|-----------------------|

verse-work out timing from the CD. This is quite an easy rhythm to 
--------------------------------------|play, you just need to get 
--------------------------------------|the hang of it.
-7-----9>10---10----------------------|
-7-----9>10---10--10----10>8-8>7-7-10-|
-5-----7>8----8---10----10>8-8>7-7-10-|
------------------8-----8->6-6>5-5-8--|

chorus
-----------------------------------------------------------------|
-----------------------------------------------------------------|
-7-7-7-7------------------------10-10-10-----7-7-7-7-------------|
-7-7-7-7-10-8-8-8-8-10-10-10-10-10-10-10--10-7-7-7-7-10--8-8-8-8-|
-5-5-5-5-10-8-8-8-8-10-10-10-10-8--8--8---10-5-5-5-5-10--8-8-8-8-|
---------8--6-6-6-6-8--8--8--8------------8----------8---6-6-6-6-|

(contd)
--------------------------------------------------------------------------------------------------------------------------------------------------------------7-7-7-7------------------------10-10-10-10-----10-10-10-10-7-7-7-10-7-7-7-7-10-8-8-8-8-10-10-10-10-10-10-10-10-10--10-10-10-10-7-7-7-10-5-5-5-5-10-8-8-8-8-10-10-10-10-8--8--8--8--10--8--8--8--8--5-5-5-8----------8--6-6-6-6-8--8--8--8--------------8--

(contd)
----------------------------------------------------------------|
----------------------------------------------------------------|
-------------------------------------------------10-------------|
-8-8-8-8-8-8-8-8-10-10-10-10-10-(then-do-lots-of-10-on-the-E&A)-| 
-8-8-8-8-8-8-8-8-10-10-10-10-10------------------8--------------|
-6-6-6-6-6-6-6-6-8--8--8--8--8----------------------------------|



riff2
------------------------------------------------|
---------11-11-11-11-11-13-x-x-x----------------|
-7-x-x-x-10-10-10-10-10-12-x-x-x-10-10-10-10-10-|
-7-x-x-x-8--8--8--8--8--10-x-x-x-10-10-10-10-10-|
-5-x-x-x-------------------------8--8--8--8--8--|
------------------------------------------------|

____________________________________________________________________

MOTA

intro (Work out rhythm from CD. PT1: PM)
------|------------|
------|------------|
------|------------|
------|-----17-----|
-5----|-----17-----|
-3----|-----15-----|

riff (this is very hard to play well)
-------------------------------------------|
-------------------------------------------|
-------------------------------------------|
-17-19>20>19-17-15-13-15-19>20>19-17-15>17-|
-17-19>20>19-17-15-13-15-19>20>19-17-15>17-|
-15-17>18>17-15-13-11-13-17>18>17-15-13>15-|

verse PM (work out timing from CD. After playing twice, play riff)
------|----------|---------|-------|
------|----------|---------|-------|
------|----------|---------|-------|
-17---|----13----|---17----|----15-|
-17---|----13----|---17----|----15-|
-15---|----11----|---15----|----13-|

chorus (end on intro PT2)
-----------------------------------------------------------------|
-----------------------------------------------------------------|
---------5-5-5-5-------------------------5-5-5-5-----------------|
-3-3-3-3-5-5-5-5-5-5-5-5-5-5-5-5-3-3-3-3-5-5-5-5-5-5-5-5-5-5-5-5-|
-3-3-3-3-3-3-3-3-5-5-5-5-5-5-5-5-3-3-3-3-3-3-3-3-5-5-5-5-5-5-5-5-|
-1-1-1-1---------3-3-3-3-3-3-3-3-1-1-1-1---------3-3-3-3-3-3-3-3-|

____________________________________________________________________

ME AND MY OLD LADY

riff/verse (verse is PM’d)
------------------------------|----------------------------|
------------------------------|----------------------------|
-9-9-7-7-9-10>14>10-9-9-7-7-9-|----------------------------|
-9-9-7-7-9-10>14>10-9-9-7-7-9-|-7-7-5-5-7-8>12>8-7-7-5-5-7-|
-7-7-5-5-7-8->12>8--7-7-5-5-7-|-7-7-5-5-7-8>12>8-7-7-5-5-7-|
------------------------------|-5-5-3-3-5-6>10>6-5-5-3-3-5-|


I havent figured out the solo bit and i cant find it anywhere on the 
internet so i’m very sorry that its not here.

chorus
--------------------------------------------|
--------------------------------------------|
-9-9-7-7-9--7-7-----7------7-7----9-9-7-7-9-|
-9-9-7-7-9--7-7-7-7-7--7-7-7-7-7--9-9-7-7-9-|
-7-7-5-5-7--5-5-7-7-5--7-7-5-5-7--7-7-5-5-7-|
----------------5-5----5-5-----5------------|

end
--------------------|
--------------------|
-7+--7-7-6+--6-6----|
-----------------2+-|
-5+--5-5-4+--4-4-2+-|
-----------------0+-|

____________________________________________________________________

COOL TO HATE

verse
---------------------|
---------------------|
-10-10----10-8-8---8-|
-10-10-10-10-8-8-8-8-|
-8--8--10-8--6-6-8-6-|
-------8---------6---|

bridge-play and let ring
----------------------------------------------------------|
----------------------------------------------------------|
-10----10-8---8-6---6-8---8-10----10-8---8----------------|
-10-10-10-8-8-8-6-6-6-8-8-8-10-10-10-8-8-8---(8)---(10)---|
-8--10-8--6-8-6-4-6-4-6-8-6-8--10-8--6-8-6---(8)X8-(10)X8-|
----8-------6-----4-----6------8-------6-----(6)---(8-)---|
[ Tab from: http://www.guitartabs.cc/tabs/o/offspring/ixnay_on_the_hombre_album_tab.html ]
chorus-play and let ring.
------------------|---------|
------------------|---------|
-10---8---6---8---|-6---8---|
-10-6-8-8-6-6-8-8-|-6-6-8-8-|7+-7+-7+-7--------|
-5+--5+-5+-5>7+-5+-7+-5>13>14~-|
-----3+----3>5+----5+----------|

verse
-------|---------------------|
-------|-5-8-8-5-8-----------|
-7-5-7-|-5-7-7-5-7-5-7-7-5-7-|
-7-5-7-|-3-5-5-3-5-5-7-7-5-7-|
-5-3-5-|-----------3-5-5-3-5-|
-------|---------------------|

pre-chorus
-------------------------------------------|
-------------------------------------------|
-(7)---------(7)---------(7)---------------|
-(7)---(5)---(7)---(5)---(7)---(5)---(7)---|
-(5)X8-(5)---(5)X8-(5)---(5)X8-(5)---(7)---|
-------(3)X8-------(3)X8-------(3)X4-(5)X4-|

chorus
---------------------------------------------------|
---------------------------------------------------|
-7-7-7-7---------7-7-7-7---------7-7-7-7---------7-|
-7-7-7-7-5-5-5-5-7-7-7-7-5-5-7-7-7-7-7-7-7-7-7-7-7-|
-5-5-5-5-5-5-5-5-5-5-5-5-5-5-7-7-5-5-5-5-7-7-7-7-5-|
---------3-3-3-3---------3-3-5-5---------5-5-5-5---|

bridge  PT1                                 
-------------------------------------------|---------------------------|
-------------------------------------------|---------------------------|
-10-10-10-10-12-12-12-12-------------------|-10---12--------10---12-14-|
-10-10-10-10-12-12-12-12-12-10-12-12-10-12-|-10---12---12---10---12-14-|
-8--8--8--8--10-10-10-10-12-10-12-12-10-12-|-8-X4-10X4-12---8-X4-10-12-|
-------------------------10-8--10-10-8--10-|-----------10X8------------|

ska bit
--2-4h5----9--11h12---7-9h10----11--11h12-|--10--|
-3-3-----10-10-------8-8------10--10------|--10--|
------------------------------------------|--11--|
------------------------------------------|--12--|
------------------------------------------|--12--|
------------------------------------------|--10--|

____________________________________________________________________

DON’T PICK IT UP

intro
---------------------|
---------------------|
---------------------|
-------------------4-|
---------------1-4-x-|
-2+-2+-2+-2+-2-2-2-2-|

verse/chorus (ska style)
---------------------------|
---------------------------|
-x11-x11-x9-x9-------------|
-x11-x11-x9-x9-x9-x9-x9-x9-|
-x9--x9--x7-x7-x9-x9-x9-x9-|
---------------x7-x7-x7-x7-|

solo riff thing
---------------------|
---------------------|
---------------------|
---------------------|
-9-9-9-9-7-7-7-7-6h7-|
---------------------|

____________________________________________________________________

AMAZED

intro
---------------------------------|
---------------------------------|
-----------------7-7-7-7-5-5-5-5-|
-7-7-7-7-5-5-5-5-7-7-7-7-5-5-5-5-|
-7-7-7-7-5-5-5-5-5-5-5-5-3-3-3-3-|
-5-5-5-5-3-3-3-3-----------------|

riff
-0--0--0--0--0--0--0--0--0--0--0--0--0-0-+~-|
-10-12-13-10-12-13-10-12-13-15-13-12-8-10+~-|
--------------------------------------------|
--------------------------------------------|
--------------------------------------------|
--------------------------------------------|





pre chorus
-----------------------------|
-----------------------------|
-----------------------------|
-------------------0---------|
-0-2-3-0-2-3-0-2-3---3-2---0-|
-------------------------3---|

chorus
-----------------------------------|
-----------------------------------|
-----------9-9-9-9---------7-7-7-7-|
-7-7-10-10-9-9-9-9-5-5-5-5-7-7-7-7-|
-7-7-10-10-7-7-7-7-5-5-5-5-5-5-5-5-|
-5-5-8--8----------3-3-3-3---------|

bridge
------------------------------|
------------------------------|
-------------(7)----9-9-12>14-|
-(7)---(5)---(7)----9-9-12>14-|
-(7)---(5)---(5)X8--7-7-10>12-|
-(5)X8-(3)X8------------------|

____________________________________________________________________

CHANGE THE WORLD

intro (PM)
------------------------------------------------------------|
---------------------------------9-9-9-10-9---4-4-4-5-4---4-|
-------------------------------9-9-9-9-9--9-4-4-4-4-4-4-6-4-|
---7-7-7-6-6-7-7-9-9-9-7-7-7-6------------------------------|
--9---------------------------------------------------------|
------------------------------------------------------------|

played under intro (PM)
------------------------------------------|
------------------------------------------|
--------------------------4-4-4-4-4-4-4-4-|
-4--------2-2-2-2-2-2-2-2-4-4-4-4-4-4-4-4-|
-4--------2-2-2-2-2-2-2-2-2-2-2-2-2-2-2-2-|
-2-(X16)--0-0-0-0-0-0-0-0-----------------|

riff                             
---------------------------------|----------|
---------------------------------|----------|
---------------------------------|----------|
-4-4-4-4-4-4-4-4-4-4-4-4-4-4-4-4-|----4+----|
-------------------------2-2-2-2-|----4+----|
-2-2-2-2-2-2-2-2-0-0-0-0---------|----2+----|

verse
------------------|
-7+---5+----------|
-6+---4+---4+-----|
-4+---2+---4+---4-|
-----------2+---4-|
----------------2-|

pre-chorus
----------------------------------|--------------|
----------------------------------|--------------|
---------9xx9xx9x-----------------|-6xx-7--7-7-7-|
-7xx7xx7x9xx9xx9x9xx9xx9x9xx9xx9x-|-6xx-7--7-7-7-|
-7xx7xx7x7xx7xx7x9xx9xx9x9xx9xx9x-|-4xx-5--5-5-5-|
-5xx5xx5x--------7xx7xx7x7xx7xx7x-|--------------|

chorus
-----------------------------------------|
-----------------------------------------|
-11-11-11-11-9-9-9-9---------11-11-11-11-|
-11-11-11-11-9-9-9-9-9-9-9-9-11-11-11-11-|
-9--9--9--9--7-7-7-7-9-9-9-9-9--9--9--9--|
---------------------7-7-7-7-------------|

bridge
-----|---------------------|
-----|---------------------|
-6-7-|-11-11-11-11-----9-9-|
-6-7-|-11-11-11-11-7-7-9-9-|
-4-5-|-9--9--9--9--7-7-7-7-|
-----|-------------5-5-----|

____________________________________________________________________

Well, thats it. If there is anything missing or wrong, I am very very sorry. This tab was compiled from tabs in books, on the net and mostly from my own working out of the songs. I hope this tab has helped.


 a + means let ring
 a note in () means palm mute unless it says otherwise
 a ~ means use the tremolo arm
 a > means slide
 an h means hammer on
 a p means pull off
Comments