Offspring - I Want You Bad Chords & Tabs

 

I Want You Bad Chords & Tabs

Offspring Chords & Tabs

Version: 1 Type: Tab 0 ratings
1 star 2 stars 3 stars 4 stars 5 stars
comments

I Want You Bad Tab

The Offspring, i want you bad.
Tabbed by Chantal, silverchair_surfing_bird@hotmail.com.
  
the Offspring 
Want you bad 

Intro Repeat 4x 

e---------------------------- 
b---------------------------- 
g--9-xx---------------------- 
d--9-xx-9-xx-7-xx-11-9------- 
a--7-xx-9-xx-7-xx-11-9------- 
E----xx-7-xx-5-xx-9--7------- 

just repeat this chord palm muted a bunch of times 
e------------ 
b------------ 
g---9-------- 
d---9-------- 
a---7-------- 
E------------ 


Verse Chords 
G--999999999999---------------------------------------- 
D--999999999999-111111111111111111111111-999999999999-- 
A--777777777777-111111111111111111111111-999999999999-- 
E----------------9-9-9-9-9-9-9-9-9-9-9-9-777777777777-- 
   P.M. -  - - - - - - - - - - - - - - - - - - - - - -| 

d--77-6-666-77-9-999-- 
a--77-6-666-77-9-999-- 
E--55-4-444-55-7-777-- 

G--999999999999---------------------------------------- 
D--999999999999-111111111111111111111111-999999999999-- 
A--777777777777-111111111111111111111111-999999999999-- 
E----------------9-9-9-9-9-9-9-9-9-9-9-9-777777777777-- 
   P.M. -  - - - - - - - - - - - - - - - - - - - - - -| 

d-xx-7-xx-6-xx-7-xx-9--- 
a-xx-7-xx-6-xx-7-xx-9--- 
E-xx-5-xx-4-xx-5-xx-7--- 

Pre-Chorus 
e-------------------------------------------- 
B-------------------------------------------- 
G---------------------6-66-6666--9-99-9999--- 
D-7-77-7777-9-99-9999------------------------ 
A-7-77-7777-9-99-9999-4-44-4444--7-77-7777--- 
E-5-55-5555-7-77-7777------------------------ 
[ Tab from: http://www.guitartabs.cc/tabs/o/offspring/i_want_you_bad_tab.html ]
e------------------------------------------------------- 
B------------------------------------------------------- 
G---------------------9-99-9999--11-1111-1111111---xxx-- 
D-7-77-7777-9-99-9999------------------------------xxx-- 
A-7-77-7777-9-99-9999-7-77-7777--9--9-9--9-9-9-9---xxx-- 
E-5-55-5555-7-77-7777----------------------------------- 


Chorus 
G--999999999999---------------------------------------- 
D--999999999999-111111111111111111111111-999999999999-- 
A--777777777777-111111111111111111111111-999999999999-- 
E----------------9-9-9-9-9-9-9-9-9-9-9-9-777777777777-- 

d--77-6-666-77-9-999-- 
a--77-6-666-77-9-999-- 
E--55-4-444-55-7-777-- 

G--999999999999---------------------------------------- 
D--999999999999-111111111111111111111111-999999999999-- 
A--777777777777-111111111111111111111111-999999999999-- 
E----------------9-9-9-9-9-9-9-9-9-9-9-9-777777777777-- 

d-xx-7-xx-6-xx-7-xx-9--- 
a-xx-7-xx-6-xx-7-xx-9--- 
E-xx-5-xx-4-xx-5-xx-7--- 

Bridge 
then he plays around with some harmonics then plays 
G--8--6--4--8----- 
D--x--x--x--x----- 
A--6--4--2--6----- 
E----------------- 

Solo 
G-888888888888\666666666666\444444/999999\--- 
D-xxxxxxxxxxx---xxxxxxxxxx---xxxx---xxxx----- 
A-666666666666\444444444444\222222/777777\--- 
E-------------------------------------------- 


G-888888888888\666666666666\999999/11111111/--- 
D---------------------------------------------- 
A-666666666666\444444444444\777777/-9-9-9-9/--- 
E---------------------------------------------- 

G--------------------------- 
D-13-13-13-13/16-16-16-16--- 
A--x--x--x--x--x--x--x--x--- 
E-11-11-11-11/14-14-14-14--- 


:: Ultimate Guitar Archive :: 
http://www.ultimate-guitar.com 



Comments