Offspring - I Wanna Be Sedated Chords & Tabs

 

I Wanna Be Sedated Chords & Tabs

Offspring Chords & Tabs

Version: 2 Type: Tab 0 ratings
1 star 2 stars 3 stars 4 stars 5 stars
comments

I Wanna Be Sedated Tab

TabCrawler - o/offspring/offspring-i-wanna-be-sedated.txt
                  HomeNew TabsGuitar Forums Cool!LessonsICQ BuddiesPremier Sites


              Sun Dec 9, 2001 TabCrawler.Com- Use It To Play Something...


Author/Artist: Offspring
Title: I Wanna be Sedated
Transcribed by: Adam Connelly
Email: gothic_type@ntlworld.com

NOTES: "*" under the stave means that you should palm mute that note or chord
       This is used if not every note in the section is palm muted

       Standard Tuning (EADGBE, low to high)

       The guitar 2 parts in the choruses are probably optional...there may
       not even be a guitar 2 part in the intro, but it sounds fine and it
       gives guitar 2 something to do...

INTRO:

GT 1:
------------------------------------------------------------------------------|
------------------------------------------------------------------------------|
-8/9-9-9-9-9-9-9-9-9-9-9-9-9-9-8-8/9-9-9-9-9-9-9-9-9-9-9-9-9-9----------------|
-8/9-9-9-9-9-9-9-9-9-9-9-9-9-9-8-8/9-9-9-9-9-9-9-9-9-9-9-9-9-9----------------|
-6/7-7-7-7-7-7-7-7-7-7-7-7-7-7-6-6/7-7-7-7-7-7-7-7-7-7-7-7-7-7----------------|
------------------------------------------------------------------------------|
       *   *   *   *   *   *           *   *   *   *   *   *   (*=palm mute)


GT 2: (Palm Muted)
------------------------------------------------------------------------------|
------------------------------------------------------------------------------|
------------------------------------------------------------------------------|
-2-2-2-2-2-2-2----------------------------------------------------------------|
-2-2-2-2-2-2-2----------------------------------------------------------------|
-0-0-0-0-0-0-0----------------------------------------------------------------|
 after GT 1 does the slide come in with GT 2...repeat for a while

CHORUS 1: x2

 (NOTE: There is no pause between the end of the intro and the start of the
 verse, so just keep palm muting)

GT 1:
------------------------------------------------------------------------------|
------------------------------------------------------------------------------|
-9-9-9-9-9-9-9-9-9-9-9-9------9-9-9-9-9-9-9-9-9-9-9-9-------------------------|
-9-9-9-9-9-9-9-9-9-9-9-9-7----9-9-9-9-9-9-9-9-9-9-9-9-------------------------|
-7-7-7-7-7-7-7-7-7-7-7-7-7----7-7-7-7-7-7-7-7-7-7-7-7-------------------------|
-------------------------5----------------------------------------------------|
   *   *   *   *   *   *        *   *   *   *   *   *

GT 2: (Palm Muted)
------------------------------------------------------------------------------|
------------------------------------------------------------------------------|
------------------------------------------------------------------------------|
-2-2-2-2-2-2-2----------------------------------------------------------------|
-2-2-2-2-2-2-2----------------------------------------------------------------|
-0-0-0-0-0-0-0----------------------------------------------------------------|


VERSE 1:

GT 1:
------------------------------------------------------------------------------|
------------------------------------------------------------------------------|
-----------------9-9-9-9-9-9-9-9-------------------9-9-9-9-9-9-9-9------------|
-9-9-9-9-9-9-9-9-9-9-9-9-9-9-9-9-9-9-9-9-9-9-9-9-9-9-9-9-9-9-9-9-9-9-9-9-9-9--|
-9-9-9-9-9-9-9-9-7-7-7-7-7-7-7-7-9-9-9-9-9-9-9-9-9-7-7-7-7-7-7-7-7-9-9-9-9-9--|
-7-7-7-7-7-7-7-7-----------------7-7-7-7-7-7-7-7-7-----------------7-7-7-7-7--|
 Strum this bit......("Take me to the airport...")

------------------------------------------------------------------------------|
------------------------------------------------------------------------------|
-------9-9-9-9-9-9-9-9--2------4----------------------------------------------|
-9-9-9-9-9-9-9-9-9-9-9--2------4----------------------------------------------|
-9-9-9-7-7-7-7-7-7-7-7--0------2----------------------------------------------|
-7-7-7------------------------------------------------------------------------|

INTERLUDE 1: (nice, I like that word! (-:)


GT 1:
------------------------------------------------------------------------------|
------------------------------------------------------------------------------|
-9-9-9-9-9-9-9-9-9-9-9-9-9----------------------------------------------------|
------------------------------------------------------------------------------|
------------------------------------------------------------------------------|
------------------------------------------------------------------------------|

 Well I can't be bothered typing in all of the nines...just play this for the
 whole of the interlude (listening to the song wouldn't hurt...lol)

[ Tab from: http://www.guitartabs.cc/tabs/o/offspring/i_wanna_be_sedated_tab_ver_2.html ]
GT 2:
------------------------------------------------------------------------------|
------------------------------------------------------------------------------|
------------------------------------------------------------------------------|
------------------------------------------------------------------------------|
-7-7-7-7-7-7-7-7-0-0-0-0-0-0-0-0-0-2-2-2-2-2-2-2-2-2-7-7-7-7-7-7-7-7----------|
------------------------------------------------------------------------------|

GT 1: (Guitar 1 plays this at the end of the interlude just before the
       alternate chorus [see below] without muting)
------------------------------------------------------------------------------|
------------------------------------------------------------------------------|
-8/9-9-9-9-9-9-9-9-9-9-9-9-9--------------------------------------------------|
-8/9-9-9-9-9-9-9-9-9-9-9-9-9--------------------------------------------------|
-6/7-7-7-7-7-7-7-7-7-7-7-7-7--------------------------------------------------|
------------------------------------------------------------------------------|

CHORUS 2:

GT 1: x2
------------------------------------------------------------------------------|
------------------------------------------------------------------------------|
-11-11-11-11-11-11-11-11-11-11-11-11-11-11-11-11---11-11-11-11-11-11-11-11----|
-11-11-11-11-11-11-11-11-11-11-11-11-11-11-11-11-9-11-11-11-11-11-11-11-11----|
-9--9--9--9--9--9--9--9--9--9--9--9--9--9--9--9--9-9--9--9--9--9--9--9--9-----|
-------------------------------------------------7----------------------------|
    *     *     *     *     *     *     *     *    *     *     *     *

GT 2: (Palm Muted)
------------------------------------------------------------------------------|
------------------------------------------------------------------------------|
------------------------------------------------------------------------------|
-4-4-4-4-4-4-4-4-4-4-4--------------------------------------------------------|
-4-4-4-4-4-4-4-4-4-4-4--------------------------------------------------------|
-2-2-2-2-2-2-2-2-2-2-2--------------------------------------------------------|

VERSE 2:

GT 1:
------------------------------------------------------------------------------|
------------------------------------------------------------------------------|
-------------------------11-11-11-11-11-11-11-------------------------11-11---|
-11-11-11-11-11-11-11-11-11-11-11-11-11-11-11-11-11-11-11-11-11-11-11-11-11---|
-11-11-11-11-11-11-11-11-9--9--9--9--9--9--9--11-11-11-11-11-11-11-11-9--9----|
-9--9--9--9--9--9--9--9-----------------------9--9--9--9--9--9--9--9----------|


------------------------------------------------------------------------------|
------------------------------------------------------------------------------|
-11-11-11-11-11-11-------------------------11-11-11-11-11-11-11-11-4-------6--|
-11-11-11-11-11-11-11-11-11-11-11-11-11-11-11-11-11-11-11-11-11-11-4-------6--|
-9--9--9--9--9--9--11-11-11-11-11-11-11-11-9--9--9--9--9--9--9--9--2-------4--|
-------------------9--9--9--9--9--9--9--9-------------------------------------|


INTERLUDE 2: ("bam bam bam bam...", claps, etc...)


GT 2: x2
------------------------------------------------------------------------------|
------------------------------------------------------------------------------|
------------------------------------------------------------------------------|
------------------------------------------------------------------------------|
-9-9-9-9-9-9-9-9-2-2-2-2-2-2-2-2-2-4-4-4-4-4-4-4-4-4-9-9-9-9-9-9-9-9----------|
------------------------------------------------------------------------------|

GT 1: repeat till end
------------------------------------------------------------------------------|
-7-7-7-7-7-7-7-7-7-7-7-7-7-7-7------------------------------------------------|
------------------------------------------------------------------------------|
------------------------------------------------------------------------------|
------------------------------------------------------------------------------|
------------------------------------------------------------------------------|

GT 2: x2 (I think...probably more like 2 and a bit!)
------------------------------------------------------------------------------|
------------------------------------------------------------------------------|
------------------------------------------------------------------------------|
------------------------------------------------------------------------------|
-7-7-7-7-7-7-7-7-0-0-0-0-0-0-0-0-0-2-2-2-2-2-2-2-2-2-7-7-7-7-7-7-7-7----------|
------------------------------------------------------------------------------|

GT 2: (endy thingy)
------------------------------------------------------------------------------|
------------------------------------------------------------------------------|
-6/11-11----------------------------------------------------------------------|
-6/11-11----------------------------------------------------------------------|
-4/9--9-----------------------------------------------------------------------|
------------------------------------------------------------------------------|


ORDER:

INTRO
CHORUS1
VERSE 1
CHORUS 1
VERSE 1
INTERLUDE 1
CHORUS 2
VERSE 2
CHORUS 2
VERSE 2
INTERLUDE 2


Back to Directory
Comments