Offspring - I Chose Solo Chords & Tabs

 

I Chose Solo Chords & Tabs

Offspring Chords & Tabs

Version: 1 Type: Tab 0 ratings
1 star 2 stars 3 stars 4 stars 5 stars
comments

I Chose Solo Tab

lush song riff 1 this whole thing is write cos its outta book
           
-10---------10----------------          bend=*
-10-10-------10----------------
-------12-12----12-10-12-10----
----------------------------12-
-------------------------------
-------------------------------
                                                               *   *   *
-13----15------------------------------------------------1717-20--20--20-20-17----------
-13-x6-15 x5-1313-151515-131313-18181818181818-202020-20----------------------18--------
-10----12----1212-141414-121212-17171717171717-191919---------------------------19*19*19*
-------------------------------------------------------------------------------------
---------------------------------------------------------------------------------------
---------------------------------------------------------------------------------------
thats the begining part i cant really b botherd 2 do the rest cos it took me ages any
mistakes email me at gigs@stick.fsnet.co.uk
[ Tab from: http://www.guitartabs.cc/tabs/o/offspring/i_chose_solo_tab.html ]
Comments