Offspring - I Choose Chords & Tabs

 

I Choose Chords & Tabs

Offspring Chords & Tabs

Version: 3 Type: Tab 0 ratings
1 star 2 stars 3 stars 4 stars 5 stars
comments

I Choose Tab

   
Title- I Choose
Author- The Offspring
Album- Ixnay on the Hombre
Author of tab- Adam Beagle
Notes- cool song with a really awesome solo. i know i didnt quite tab the 2nd solo right but its close enough.

Legend:
/=slide
b=bend
r=bend release
h=hold bend

Main Riff
|-2--3-2--x-x-x--------|
|-3--3-3--x-x-x--------|
|-2--2-2--x-x-x--------|
|-0--0-0--x-x-x--3--5--|
|-0--0-0--x-x-x--3--5--|
|----------------1--3--|

Chorus
|---------------------------------------|
|---------------------------------------|
|-7--5------7--5------7--10--12---------|
|-7--5--5---7--5--5---7--10--12---8--7--|
|-5--3--5---5--3--5---5---8--10---8--7--|
|-------3---------3---------------6--5--|

Solo
|-10---------10-------------------------------------|
|-10---------10-------------------------------------|
|-----12-10------12-10-12-10-----10-10-10\12-12-12--|
|----------------------------12---------------------|
|---------------------------------------------------|
|---------------------------------------------------|

[ Tab from: http://www.guitartabs.cc/tabs/o/offspring/i_choose_tab_ver_3.html ]
|-----------------------------|---------------------------------------|
|-13\15--15--15-13--13--13\15-|-15--15-13--13--13-18--18\20-20-20-20--|
|-12-14--14--14\12--12--12-14-|-14--14\12--12--12\17------------------|
|-----------------------------|---------------------------------------|
|-----------------------------|---------------------------------------|
|-----------------------------|---------------------------------------|


|-17-21b22h22h22-17--------------------------------------------------|
|-------------------18-----------------------------------------------|
|----------------------19-19-19-19--7--7\9--9-10-9--10--10\12-12-12--|
|-----------------------------------x--x-x--x--x-x---x---x--x--x--x--|
|-----------------------------------5--5-7--7--8-7---8---8-10-10-10--|
|--------------------------------------------------------------------|


2nd solo
|----------------------------------------------10-10-10-10--|
|-10-10--10-10-10-13-13-13----------------------x--x--x--x--|
|-12-12--12-12-12-15-15-15--15b16r15-15-13------7--7--7--7--|
|------------------------------------------15---------------|
|-----------------------------------------------------------|
|-----------------------------------------------------------|


|--------------------------------------------|
|-5-5-5--8--8--8-----------------------------|
|-7-7-7-10-10-10--12b13r12-12-10-----15--14--|
|--------------------------------12--15--14--|
|------------------------------------13--12--|
|--------------------------------------------|

2nd guitar part in solo
|-----------------------------|
|-----------------------------|
|----5-----7-------5----------|
|-7--5--5--7----7--5--5--8-7--|
|-7--3--5--5----7--3--5--8-7--|
|-5-----3-------5-----3--6-5--|

ending
|------------2--|
|------------3--|
|------------2--|
|-8-7--8-7---0--|
|-8-7--8-7---0--|
|-6-5--6-5------|
Comments