Offspring - I Choose Chords & Tabs

 

I Choose Chords & Tabs

Offspring Chords & Tabs

Version: 2 Type: Tab 0 ratings
1 star 2 stars 3 stars 4 stars 5 stars
comments

I Choose Tab

Offspring, I Choose.
Tabbed by B.. K.. D...
  
intro:

G-----------------------------------------------------
D-----------------------------------------------------
A--5---5--5-----------2-3-4---------------------------
E-----------1-0-1-2-3---------------------------------

verse:
[ Tab from: http://www.guitartabs.cc/tabs/o/offspring/i_choose_tab_ver_2.html ]
G-----------------------------------------------------
D-----------------3-----3---5--5----------------------
A--5-3-55-5-0-5-3----------------2-3-4----------------
E-----------------------------------------------------

G-----------------------------------------------------
D-----------------------------------------------------
A--5-3-55-5-0-5-3-------------2-3-4-------------------
E-----------------1-0-1-2-3-4-------------------------

>From a kid named Kevin. 
:: Ultimate Guitar Archive :: 
http://www.ultimate-guitar.com 

Comments