Offspring - Hypodermic Chords & Tabs

 

Hypodermic Chords & Tabs

Offspring Chords & Tabs

Version: 5 Type: Tab 0 ratings
1 star 2 stars 3 stars 4 stars 5 stars
comments

Hypodermic Tab

THE OFFSPRING
HYPODERMIC

INTRO
E---------
B---------
G---14/---
D---------
A---------
E---------

VERSE
E--------------------------------
B--------------------------------
G---------------5-5555----77-----
D---7-7777-7-33-5-5555-55-77-----
A---7-7777-7-33-3-3333-55-55-----
E---5-5555-5-11--------33--------
PM  * **** * ** * **** ** **

PRE-CHORUS
E------------------------
B------------------------
G-----------10-5555-7777-
D---7777777-10-5555-7777-
A---7777777--8-3333-5555-
E---5555555--------------
[ Tab from: http://www.guitartabs.cc/tabs/o/offspring/hypodermic_tab_ver_5.html ]
CHORUS
E----------------------------------------------
B----------------------------------------------
G---10~-12~------5-7-5------5--------------5-7-
D---10~-12~-7777-5-7-5-7777-5-55------7777-5-7-
A----8~-10~-7777-3-5-3-7777-3-55-(x2)-7777-3-5-
E-----------5555-------5555---33------5555-----

CHORUS 2
E-----------------------------------------
B-----------------------------------------
G---10~-12~------5-7-5------5----10~-12~--
D---10~-12~-7777-5-7-5-7777-5-55-10~-12~--
A----8~-10~-7777-3-5-3-7777-3-55--8~-10~--
E-----------5555-------5555---33----------

CHORUS 3
E------------------------------
B------------------------------
G--------5-7-5------9-10-12----
D---7777-5-7-5-7777-9-10-12----
A---7777-3-5-3-7777-7--8-10----
E---5555-------5555------------

ORDER
INTRO
VERSE x8
PRE-CHORUS x3
CHORUS
INTRO x2
VERSE x6
PRE-CHORUS x3
CHORUS
VERSE x6
PRE-CHORUS X3
CHORUS 2
CHORUS 3 x11
Comments