Offspring - Huck It Chords & Tabs

 

Huck It Chords & Tabs

Offspring Chords & Tabs

Version: 3 Type: Tab 0 ratings
1 star 2 stars 3 stars 4 stars 5 stars
comments

Huck It Tab

   
Artist: The Offspring
Track: Huck It
Album: Conspiracy Of One
Tabbed By Mark Brown E-mail markusbrownus2@hotmail.com


Intro

e--7-------------8-----|
B-----8-----10---------|
G----------------------|
D----------------------|
A----------------------|
E----------------------|


e----------------------|
B----------------------|
G--9~------------9~----|
D--9~------------9~----|
A--7~------------7~----|
E----------------------|


e---------------------------------------------------------------|
B---------------------------------------------------------------|
G-9-9-9-9-9-9-7-7-7-7-7-7-------------12-12-12-12-14-14-14-14---|
D-9-9-9-9-9-9-7-7-7-7-7-7-7-7-7-7-7-7-12-12-12-12-14-14-14-14---|
A-7-7-7-7-7-7-5-5-5-5-5-5-7-7-7-7-7-7-10-10-10-10-12-12-12-12---|
E-------------------------5-5-5-5-5-5---------------------------|

Verse

e---------------------------------------------------------------|
B---------------------------------------------------------------|
G-9~--12-11-12-9--12-11-7~--------------------------------------|
D-9~--12-11-12-9--12-11-7~-5-5-5-5-5-5-7-7-7-7-7-7--------------|
A-7~--10--9-10-7--10--9-5~-5-5-5-5-5-5-7-7-7-7-7-7--------------|
E--------------------------3-3-3-3-3-3-5-5-5-5-5-5--------------|
                        p.m_______________________|

e-------------------------------------------------------|
B-------------------------------------------------------|
G-9~--12-11-12-9--12-11-12-7-7-7-7-7-7-7-7--------------|
D-9~--12-11-12-9--12-11-12-7-7-7-7-7-7-7-7--------------|
A-7~--10--9-10-7--10--9-10-5-5-5-5-5-5-5-5--------------|
E-------------------------------------------------------|

Chorus
[ Tab from: http://www.guitartabs.cc/tabs/o/offspring/huck_it_tab_ver_3.html ]
e----------------------------------------------------------------|
B----------------------------------------------------------------|
G-------------12-12-14-14----------------12-12-12-12-------------|
D-10-10-10-10-12-12-14-14-14-14-14-14-14-12-12-12-12-10-10-10-10-|
A-10-10-10-10-10-10-12-12-14-14-14-14-14-10-10-10-10-10-10-10-10-|
E--8--8--8--8-------------12-12-12-12-12--------------8--8--8--8-|

e------------------------------------------------------------------------|
B------------------------------------------------------------------------|
G-12-12-14-14----------------12-12-12-12----------------12-12-12-12------|
D-12-12-14-14-14-14-14-14-14-12-12-12-12-14-14-14-14-14-12-12-12-12-14-12|
A-10-10-12-12-14-14-14-14-14-10-10-10-10-14-14-14-14-14-10-10-10-10-14-12|
E-------------12-12-12-12-12-------------12-12-12-12-12-------------12-10|

Verse 2

e---------------------------------------------------|
B---------------------------------------------------|
G--------------------7~-----------------------------|
D-2~--5-4-5-2--5-4-5-7~-5-5-5-5-5-5-7-7-7-7-7-7-----|
A-2~--5-4-5-2--5-4-5-5~-5-5-5-5-5-5-7-7-7-7-7-7-----|
E-0~--3-2-3-0--3-2-3----3-3-3-3-3-3-5-5-5-5-5-5-----|
                      p.m______________________|


e------------------------------------------|
B------------------------------------------|
G--------------------7-7-7-7-7-7-7-7-------|
D-2~--5-4-5-2--5-4-5-7-7-7-7-7-7-7-7-------|
A-2~--5-4-5-2--5-4-5-5-5-5-5-5-5-5-5-------|
E-0~--3-2-3-0--3-2-3-----------------------|
                         p.m_______|
Bridge

e--------------------------------------------------------|
B--------------------------------------------------------|
G--------------------5-5-5-------------------------------|
D-2~--5-4-5-2--5-4-5-5-5-5-5-5-5-5-5-5-7-7-7-7-7-7-------|
A-2~--5-4-5-2--5-4-5-3-3-3-5-5-5-5-5-5-7-7-7-7-7-7-------|
E-0~--3-2-3-0--3-2-3-------3-3-3-3-3-3-5-5-5-5-5-5-------|
                         
e------------------------------------------|
B------------------------------------------|
G---------------------7-7-7-7-7-7-7-7------|
D--2~--5-4-5-2--5-4-5-7-7-7-7-7-7-7-7------|
A--2~--5-4-5-2--5-4-5-5-5-5-5-5-5-5-5------|
E--0~--3-2-3-0--3-2-3----------------------|
                     p.m_____|
Outro

e------------|
B------------|
G--9\--------|
D--9\--------|
A--7\--------|
E------------|
Comments