Offspring - Huck It Chords & Tabs

 

Huck It Chords & Tabs

Offspring Chords & Tabs

Version: 2 Type: Tab 0 ratings
1 star 2 stars 3 stars 4 stars 5 stars
comments

Huck It Tab

HUCK IT - The Offspring
A very good extra track on their album from their home video entitled "Huck It". Easy to play
and has a real jump around sound. This is EXACTLY right. No mistakes at all! So enjoy!
If you wish to send me compliments or tell me that there is a mistake (which there isn't!) send
a mail to Matthew@ihajohns.demon.co.uk

00:00 - 00:38 (Guitar 1)
|-----------------------|
|-12~~~-----------13~~~-|
|------12~~~14~~~-------|
|-----------------------| x6 INTRO 1a
|-----------------------|
|-----------------------|

00:13 (Guitar 2)
|-----------------------|-----------------X-----|
|-----------------------|------------------X----|
|-9~~~~~~~~~~~~~~~~~~~9-|-9~~~~~~~~~~~~~~~~~X---|
|-9~~~~~~~~~~~~~~~~~~~9-|-9~~~~~~~~~~~~~~~~~~X--| INTRO 1b
|-7~~~~~~~~~~~~~~~~~~~7-|-7~~~~~~~~~~~~~~~~~~~X-|
|-----------------------|----------------------X|

00:25 (Guitar 2)
|-------------------------------------------------------------------------\
|-------------------------------------------------------------------------\
|-9-9-9-9-99-9-99-7-7-7-7-77-7-77-----------------12-12-12-12-14-14-14-14-\
|-9-9-9-9-99-9-99-7-7-7-7-77-7-77-7-7-7-7-77-7-77-12-12-12-12-14-14-14-14-\ x2 INTRO 2b
|-7-7-7-7-77-7-77-5-5-5-5-55-5-55-7-7-7-7-77-7-77-10-10-10-10-12-12-12-12-\ 
|---------------------------------5-5-5-5-55-5-55-------------------------\

00:38 (Both Guitars)				  pm----------
|-----------------|-----------------|--------------|---------------|
|-----------------|-----------------|--------------|---------------|
|-9~~~~~~~~~~~~12-|---9-12-9-----12-|--9-12--------|---------------|
|-9~~~~~~~~~~~~12-|---9-12-9-----12-|--9-12-12~~~~~|-5-555-555-7-7-|
|-9~~~~~~~~~~~~10-|---7-10-7-----10-|--7-10-12~~~~~|-5-555-555-7-7-|
|-----------------|-----------------|-------10~~~~~|-3-333-333-5-5-|
                           					     VERSE
|-----------------|-----------------|----------------|-------------\
|-----------------|-----------------|----------------|-------------\
|-9~~~~~~~~~~~~12-|---9-12-9-----12-|--9-12----------|-------------\
|-9~~~~~~~~~~~~12-|---9-12-9-----12-|--9-12-12~~~~~~~|-12-12-12-12-\
|-9~~~~~~~~~~~~10-|---7-10-7-----10-|--7-10-12~~~~~~~|-12-12-12-12-\
|-----------------|-----------------|-------10~~~~~~~|-12-12-12-12-\

00:50 (Both Guitars)
|-----------------------|---------------|-----------------------|---------------|
|-----------------------|---------------|-----------------------|---------------|
|-------------121212-14-|-9-9-9-9-9-912-|-------------121212-14-|-9-9-9-9-9-912-|
|-10-10-10-10-121212-14-|-9-9-9-9-9-912-|-10-10-10-10-121212-14-|-9-9-9-9-9-912-|
|-10-10-10-10-101010-12-|-7-7-7-7-7-710-|-10-10-10-10-101010-12-|-7-7-7-7-7-710-|
|--8--8--8--8-----------|---------------|--8--8--8--8-----------|---------------|

|---------------|---------------\
|---------------|---------------\
|-9-9-9-9-9-912-|---------------\
|-9-9-9-9-9-912-|-10~~~~~~~~~~~~\
|-7-7-7-7-7-710-|-10~~~~~~~~~~~~\
|---------------|--8~~~~~~~~~~~~\

1:01 (Both Guitars)				  pm----------
|-----------------|-----------------|--------------|---------------|
|-----------------|-----------------|--------------|---------------|
|-9~~~~~~~~~~~~12-|---9-12-9-----12-|--9-12--------|---------------|
|-9~~~~~~~~~~~~12-|---9-12-9-----12-|--9-12-12~~~~~|-5-555-555-7-7-|
|-9~~~~~~~~~~~~10-|---7-10-7-----10-|--7-10-12~~~~~|-5-555-555-7-7-|
|-----------------|-----------------|-------10~~~~~|-3-333-333-5-5-|

						  pm----------
|-----------------|-----------------|--------------|---------------|
|-----------------|-----------------|--------------|---------------|
|-9~~~~~~~~~~~~12-|---9-12-9-----12-|--9-12--------|---------------|
|-9~~~~~~~~~~~~12-|---9-12-9-----12-|--9-12-12~~~~~|-5-555-555-7-7-|
|-9~~~~~~~~~~~~10-|---7-10-7-----10-|--7-10-12~~~~~|-5-555-555-7-7-|
|-----------------|-----------------|-------10~~~~~|-3-333-333-5-5-|
[ Tab from: http://www.guitartabs.cc/tabs/o/offspring/huck_it_tab_ver_2.html ]
						  pm----------        VERSE 2
|-----------------|-----------------|--------------|---------------|
|-----------------|-----------------|--------------|---------------|
|-9~~~~~~~~~~~~12-|---9-12-9-----12-|--9-12--------|---------------|
|-9~~~~~~~~~~~~12-|---9-12-9-----12-|--9-12-12~~~~~|-5-555-555-7-7-|
|-9~~~~~~~~~~~~10-|---7-10-7-----10-|--7-10-12~~~~~|-5-555-555-7-7-|
|-----------------|-----------------|-------10~~~~~|-3-333-333-5-5-|

|-----------------|-----------------|----------------|-------------\
|-----------------|-----------------|----------------|-------------\
|-9~~~~~~~~~~~~12-|---9-12-9-----12-|--9-12----------|-------------\
|-9~~~~~~~~~~~~12-|---9-12-9-----12-|--9-12-12~~~~~~~|-12-12-12-12-\
|-9~~~~~~~~~~~~10-|---7-10-7-----10-|--7-10-12~~~~~~~|-12-12-12-12-\
|-----------------|-----------------|-------10~~~~~~~|-12-12-12-12-\

1:26 (Both Guitars)
|-----------------------|---------------|-----------------------|---------------|
|-----------------------|---------------|-----------------------|---------------|
|-------------121212-14-|-9-9-9-9-9-912-|-------------121212-14-|-9-9-9-9-9-912-|
|-10-10-10-10-121212-14-|-9-9-9-9-9-912-|-10-10-10-10-121212-14-|-9-9-9-9-9-912-|
|-10-10-10-10-101010-12-|-7-7-7-7-7-710-|-10-10-10-10-101010-12-|-7-7-7-7-7-710-|
|--8--8--8--8-----------|---------------|--8--8--8--8-----------|---------------|

|---------------|---------------\
|---------------|---------------\
|-9-9-9-9-9-912-|---------------\
|-9-9-9-9-9-912-|-10~~~~~~~~~~~~\ x2 CHORUS 2
|-7-7-7-7-7-710-|-10~~~~~~~~~~~~\
|---------------|--8~~~~~~~~~~~~\

1:47 (Guitar 1)
|-----------------------|
|-12~~~-----------13~~~-|
|------12~~~14~~~-------|
|-----------------------| x2 INTRO 1a
|-----------------------|
|-----------------------|

1:47 (Guitar 2)
|-----------------------|-----------------X-----|
|-----------------------|------------------X----|
|-9~~~~~~~~~~~~~~~~~~~9-|-9~~~~~~~~~~~~~~~~~X---|
|-9~~~~~~~~~~~~~~~~~~~9-|-9~~~~~~~~~~~~~~~~~~X--| INTRO 1b
|-7~~~~~~~~~~~~~~~~~~~7-|-7~~~~~~~~~~~~~~~~~~~X-|
|-----------------------|----------------------X|


2:00 (Guitar 1)
Lpm----------------------------------          pm---------------
|---------------|-----------------|-------------|---------------|
|---------------|-----------------|-------------|---------------|
|-9-9--------12~|---9-12-9-----12~|-9-12~~~-----|---------------|
|-9-9--------12~|---9-12-9-----12~|-9-10~~~-----|-5-555-555-7-7-|
|-7-7--------10~|---7-10-7-----10~|-7-----------|-5-555-555-7-7-|
|---------------|-----------------|-------------|-3-333-333-5-5-|

(Both Guitars)
Lpm----------------------------------         
|---------------|-----------------|-------------|-----------|
|---------------|-----------------|-------------|-----------|
|-9-9--------12~|---9-12-9-----12~|-9-14~~~~~~~~|~~~~~~~~~~~|
|-9-9--------12~|---9-12-9-----12~|-9-12~~~~~~~~|~~~~~~~~~~~|
|-7-7--------10~|---7-10-7-----10~|-7-----------|-----------|
|---------------|-----------------|-------------|-----------|

2:12 (Both Guitars)
|-----------------------|---------------|-----------------------|---------------|
|-----------------------|---------------|-----------------------|---------------|
|-------------121212-14-|-9-9-9-9-9-912-|-------------121212-14-|-9-9-9-9-9-912-|
|-10-10-10-10-121212-14-|-9-9-9-9-9-912-|-10-10-10-10-121212-14-|-9-9-9-9-9-912-|
|-10-10-10-10-101010-12-|-7-7-7-7-7-710-|-10-10-10-10-101010-12-|-7-7-7-7-7-710-|
|--8--8--8--8-----------|---------------|--8--8--8--8-----------|---------------|

|---------------|---------------\
|---------------|---------------\
|-9-9-9-9-9-912-|---------------\
|-9-9-9-9-9-912-|-10~~~~~~~~~~~~\ x2 CHORUS 3
|-7-7-7-7-7-710-|-10~~~~~~~~~~~~\
|---------------|--8~~~~~~~~~~~~\

2:34 (Guitar 1)
|--------------------|
|--------------------|
|-9/-----------------|
|-9/-----------------|
|-7/-----------------|
|--------------------|

Comments