Offspring - Hit That Chords & Tabs

 

Hit That Chords & Tabs

Offspring Chords & Tabs

Version: 3 Type: Tab 0 ratings
1 star 2 stars 3 stars 4 stars 5 stars
comments

Hit That Tab

   
Artist: The Offspring
Title: Hit That
Album: Splinter
Tabber: danc446 (@yahoo.com) INTRO

e|-----------------|
B|-----------------|
D|--5:--7:--2-2-2--|
A|--5:--7:--2-2-2--|
E|--3:--5:--0-0-0--|

Riff A  (w/ Synth.)
e|----------------------------------------------|
B|----------------------------------------------|
G|--4-7-4-7/9---4-7-4-7/9---4-7-4-7/9-9/12-12-9-|
D|----------------------------------------------|
A|------------7-----------7---------------------|
E|----------------------------------------------|

Riff B  (w/Piano)
e|-------------|
B|-------------|
D|---0---------|
A|-2---2-0-----|
E|---------3-0-|

CHORUS
e|-------------------------------------
B|--------------------------------------
G|--------------7-9-9---------7-9-9-----
D|5:-7:-2-2-2-2-7-9-9-2-2-2-2-7-9-9-----
A|5:-7:-2-2-2-2-5-7-7-2-2-2-2-5-7-7-----
E|3:-5:-0-0-0-0-------0-0-0-0-----------
[ Tab from: http://www.guitartabs.cc/tabs/o/offspring/hit_that_tab_ver_3.html ]
                              ----------------------------------------|
                              ----------------------------------------|
                              ----------------------------------------|
                              -------5-5-5-5-5-5-5-5-7-7-7-7-7-7-7-7--|
                              -------5-5-5-5-5-5-5-5-7-7-7-7-7-7-7-7--|
                              -------3-3-3-3-3-3-3-3-5-5-5-5-5-5-5-5--|

Post-chorus
e|--------------------------------------------------
B|--------------------------------------------------
G|-9-9-9-9-9-9-9-9-9-9-9-9-9-9-9-9-7-7-7-7-7-7-7-7--
D|-9-9-9-9-9-9-9-9-9-9-9-9-9-9-9-9-7-7-7-7-7-7-7-7--
A|-7-7-7-7-7-7-7-7-7-7-7-7-7-7-7-7-5-5-5-5-5-5-5-5--
E|--------------------------------------------------

     ------------------------------------------------------
     ------------------------------------------------------
     -2-2-2-2-2-2-2-2-----------------4-4-4-4-4-4-4-4------
     -2-2-2-2-2-2-2-2-2-2-2-2-2-2-2-2-4-4-4-4-4-4-4-4------
     -0-0-0-0-0-0-0-0-2-2-2-2-2-2-2-2-2-2-2-2-2-2-2-2------
     -----------------0-0-0-0-0-0-0-0----------------------

     ------------------|
     ------------------|
     ------------------|
     ---5--7---2-2-2---|
     ---5--7---2-2-2---|
     ---3--5---0-0-0---|

FILL C
e|-------|
B|-------|
G|--9-9--|
D|--9-9--|
A|--7-7--|
E|-------|

Then play CHORUS and POSTCHORUS
Comments