Offspring - Hit That Chords & Tabs

 

Hit That Chords & Tabs

Offspring Chords & Tabs

Version: 4 Type: Bass Tab 0 ratings
1 star 2 stars 3 stars 4 stars 5 stars
comments

Hit That Bass Tab

The Offspring- Hit That
Bass Tabs
Standard Tuning

Intro

G----------|
D----------|
A----------|
E-3-5-000--|

Verse

G---------------------------------------------------------------|
D---------------------------------------------------------------|  x7
A--7-7-7-7-7-7--------------------------------------------------|
E-0-0-0-0-0-0------7-6-5-3-0------------------------------------|

Pre Chorus

G---------------------------------------------------------------|
D---------------------------------------------------------------|
A--7-7-7-7-7-7-7-7----------------------------------------------|
E-0-0-0-0-0-0-0-0-----------------------------------------------|

Chorus

G--------------------------------------------------------5-5-5-5-|
D--5-5-5-5--7-7-7-7--5-5-5-5--7-7-7-7----------------------------|
A--------------------------------------7-7-7-7-7-7-7-7--3-3-3-3--|
E-3-3-3-3--5-5-5-5--3-3-3-3--5-5-5-5--0-0-0-0-0-0-0-0------------|

G------------------------------4-4-4-4--------------------------|
D--7-7-7-7------------------------------------------------------|
A--------------------7-7-7-7--2-2-2-2---------------------------|
E-5-5-5-5-----------0-0-0-0-------------3-5-000-----------------|

Verse

G---------------------------------------------------------------|
D---------------------------------------------------------------|  x5
A--7-7-7-7-7-7--------------------------------------------------|
E-0-0-0-0-0-0------7-6-5-3-0------------------------------------|

Pre Chorus
[ Tab from: http://www.guitartabs.cc/tabs/o/offspring/hit_that_btab_ver_4.html ]
G---------------------------------------------------------------|
D---------------------------------------------------------------|
A--7-7-7-7-7-7-7-7----------------------------------------------|
E-0-0-0-0-0-0-0-0-----------------------------------------------|

Chorus

G--------------------------------------------------------5-5-5-5-|
D--5-5-5-5--7-7-7-7--5-5-5-5--7-7-7-7----------------------------|
A--------------------------------------7-7-7-7-7-7-7-7--3-3-3-3--|
E-3-3-3-3--5-5-5-5--3-3-3-3--5-5-5-5--0-0-0-0-0-0-0-0------------|

G------------------------------4-4-4-4--------------------------|
D--7-7-7-7------------------------------------------------------|
A--------------------7-7-7-7--2-2-2-2---------------------------|
E-5-5-5-5-----------0-0-0-0-------------3-5-000-----------------|

Bridge

(No Bass until after "Take a chance everything a game".

G---------------------------------------------------------------|
D---------------------------------------------------------------|
A--7-7-7-7-7-7--------------------------------------------------|
E-0-0-0-0-0-0------7-6-5-3-0------------------------------------|


Chorus

G--------------------------------------------------------5-5-5-5-|
D--5-5-5-5--7-7-7-7--5-5-5-5--7-7-7-7----------------------------|
A--------------------------------------7-7-7-7-7-7-7-7--3-3-3-3--|
E-3-3-3-3--5-5-5-5--3-3-3-3--5-5-5-5--0-0-0-0-0-0-0-0------------|

G------------------------------4-4-4-4--------------------------|
D--7-7-7-7------------------------------------------------------|
A--------------------7-7-7-7--2-2-2-2---------------------------|
E-5-5-5-5-----------0-0-0-0-------------3-5-000-----------------|
Comments