Offspring - Have You Ever Chords & Tabs

 

Have You Ever Chords & Tabs

Offspring Chords & Tabs

Version: 8 Type: Tab 0 ratings
1 star 2 stars 3 stars 4 stars 5 stars
comments

Have You Ever Tab

              -------------------------------------------------------- 
                            Have you ever - The Offspring
              --------------------------------------------------------


 * - p.m (palm mute)
 : - let ring
 # - normal


+ 1st Guitar - Dexter Holland
+ 2nd Guitar - Noodles

 

+ Both Guitars (Intro)
e|--------------------------------------|
B|----*----*----*----*----*------*--#---|
G|--9-99-9-99-9-99-9-99-9-99-9-9999999--|
D|--9-99-9-99-9-99-9-99-9-99-9-9999999--|
A|--7-77-7-77-7-77-7-77-7-77-7-7777777--|
E|--------------------------------------|


+ Both Guitars (Intro 2)  fallin!...
e|--------------------------|
B|--------------------------|
G|--999999-------777--------|
D|--999999--555--777--(x2)--|
A|--777777--555--555--------|
E|----------333-------------|


+ Guitar 1 (Riff) 
e|------------------------------------------------|
B|------------------------------------------------|
G|--13-12-13--13-12-13--12-11-12--12-11-12--------|
D|------------------------------------------10-9--|
A|------------------------------------------10-9--|
E|-------------------------------------------8-7--|

[ Tab from: http://www.guitartabs.cc/tabs/o/offspring/have_you_ever_tab_ver_8.html ]
+ Guitar 2 (Riff)
e|------------------------------------------------------|
B|------------------------------------------------------|
G|--13-12-13--13-12-13--(x2)--12-11-12--12-11-12--------|
D|------------------------------------------------10-9--|
A|------------------------------------------------10-9--|
E|-------------------------------------------------8-7--|


+ Both Guitars (Pre-Chorus)
e|----------------------------|
B|----------------------------|
G|--999--555-------777--------|
D|--999--555--555--777--(x2)--|
A|--777--333--555--555--------|
E|------------333-------------|


+ Chorus
e|----------------------------|
B|----------------------------|
G|--999--555-------777--------|
D|--999--555--555--777--(x2)--|
A|--777--333--555--555--------|
E|------------333-------------|


+ Guitar 1 (Riff)  Have u ever...


+ Guitar 2 (Riff)


+ Both Guitars (Pre-Chorus)


+ Guitar 1 (Chorus) 


+ Guitar 2 (Chorus*) 
e|---------------------------|
B|---------------------------|
G|--99999999999999999999999--|
D|--xxxxxxxxxxxxxxxxxxxxxxx--|
A|--77777777777777777777777--|
E|---------------------------|


+ Both Guitars (Intro)


+ Bass Solo


+ Outro
e|-----------------------------------|-------------------------|
B|-----------------------------------|-------------------------|
G|--------77-99-55-77-------9--------|--55-7------------55-7:--|
D|--22-55-77-99-55-77-24542-9--(x6)--|--55-7-24542-(x2)-55-7:--|
A|--22-55-55-77-33-55-24542-7--------|--33-5-24542------33-5:--|
E|--00-33-------------02320----------|-------02320-------------|





+ Tabber
   
+ Felipe Silva
+ Santiago, Chile
+ 15

+ pipe_@walla.com
Comments