Offspring - Have You Ever Chords & Tabs

 

Have You Ever Chords & Tabs

Offspring Chords & Tabs

Version: 6 Type: Tab 0 ratings
1 star 2 stars 3 stars 4 stars 5 stars
comments

Have You Ever Tab

-------------------------------------------------------------------------------
			     Have you ever - The offspring
-------------------------------------------------------------------------------

Tabbed by:Tugby
Email:rayman@wasted.com

Tuning:standard
This tab is definately 100% correct
Intro
e|---------------------------------------------------------------------------|
B|---------------------------------------------------------------------------|
G|-7------7------7-----------------------------------------------------------|
D|-7------7------7----repeat as needed, hammer on towards end----------------|
A|-9------9------9-----------------------------------------------------------|
E|--xxxxxx-xxxxxx------------------------------------------------------------|

Pre verse ( fallin! )
e|---------------------------------------------------------------------------|
B|---------------------------------------------------------------------------|
G|--7-7-7-7-7-7-7-7-------------7-7-7-7--------------------------------------|
D|--7-7-7-7-7-7-7-7---5-5-5-5---7-7-7-7--------------------------------------|
A|--9-9-9-9-9-9-9-9---5-5-5-5---5-5-5-5--------------------------------------|
E|--------------------3-3-3-3------------------------------------------------|

verse (have you ever) (palm mute at parts)
e|---------------------------------------------------------------------------|
B|---------------------------------------------------------------------------|
G|--7-7-7-7-7-------------7-7-7-7-7------------------------------------------|
D|--7-7-7-7-7--5-5-5-5-5--7-7-7-7-7--7-7-7--10--7----------------------------|
A|--9-9-9-9-9--5-5-5-5-5--5-5-5-5-5--7-7-7--10--7----------------------------|
E|-------------3-3-3-3-3-------------5-5-5--8---9----------------------------|
pm.........................................
[ Tab from: http://www.guitartabs.cc/tabs/o/offspring/have_you_ever_tab_ver_6.html ]
Chorus (well I know)
e|---------------------------------------------------------------------------|
B|---------------------------------------------------------------------------|
G|-7-7-7-7---5-5-5-5-------------7-7-7-7-------------------------------------|
D|-7-7-7-7---5-5-5-5---5-5-5-5---7-7-7-7-------------------------------------|
A|-9-9-9-9---3-3-3-3---5-5-5-5---5-5-5-5-------------------------------------|
E|---------------------3-3-3-3-----------------------------------------------|

Outro 1 (base but ok to play on guitar)
e|---------------------------------------------------------------------------|
B|---------------------------------------------------------------------------|
G|---------------------------------------------------------------------------|
D|---------------------------------------------------------------------------|
A|------------5555-7777-3333-55----------------------------------------------|
E|-0000-3333---------------------02320---------------------------------------|

outro 2
e|---------------------------------------------------------------------------|
B|---------------------------------------------------------------------------|
G|-------------7777--9999--5555-77-------------------------------------------|
D|-2222--5555--7777--9999--5555-77--2-4-5-4-2--------------------------------|
A|-2222--5555--5555--7777--3333-55--2-4-5-4-2--------------------------------|
E|-0000--3333-----------------------0-2-3-2-0--------------------------------|

outro 3
e|---------------------------------------------------------------------------|
B|---------------------------------------------------------------------------|
G|-5555-77-------------5555-5~~~~--------------------------------------------|
D|-5555-77--2-4-5-4-2--5555-5~~~~--------------------------------------------|
A|-3333-55--2-4-5-4-2--3333-7~~~~--------------------------------------------|
E|----------0-2-3-2-0--------------------------------------------------------|


ORDER

Intro (as needed)

Pre verse x2
verse x2
Chorus x 2
Pre verse x2
verse x2
chorusx2
pre verse x4

Pause (drums)

Outro 1 x2
outro 2 x4
outro 3
Thats it. An awsome song one of the best released by these guys.
===============================================================================
Comments