Offspring - Have You Ever Chords & Tabs

 

Have You Ever Chords & Tabs

Offspring Chords & Tabs

Version: 1 Type: Tab 0 ratings
1 star 2 stars 3 stars 4 stars 5 stars
comments

Have You Ever Tab

   
Song: Have you ever
By: the Offspring
Album: Americana
Submitted by: Ryan
Standard tuning: E A D G B E

It starts out with the intro: "Welcome to Ameri - cana,
please mak - e your selection followed by the pound- sign now..."


Riff 1

|---------------------------------------|
|---------------------------------------|
|---------------------------------------|  Play 3x
|--9-------------9----------------------|  for intro
|--7-------------7----------------------|
|----0-0-0-0-0-0---0-0-0-0-0-0----------|
     PM.........   PM.........

Riff 2

|---------------------------------------|
|---------------------------------------| You'll hear 
|---------------------------------------| the fast part
|-9-9-9-9-9-9-9-9---99999999------------|
|-7-7-7-7-7-7-7-7---77777777------------|
|---------------------------------------|

Riff 3 (part 1)

"Fall- ing" 
|---------------------------------------|
|---------------------------------------| count in your
|---------------------------------------| head 8 strums.
|-9-9-9-9-9-9-9-9-9-9-9-9-9-9-9-9-------| do it twice.
|-7-7-7-7-7-7-7-7-7-7-7-7-7-7-7-7-------| you will play
|---------------------------------------| the riff 
  (1 2 3 4 5 6 7 8 1 2 3 4 5 6 7 8)       better.

Riff 3 (part 2)

"I'm fall- ing"

|--------------------------------------|
|--------------------------------------|  Play all of 
|--------------------------------------|  riff 3 (1&2)
|-----------------7-7-7-7-7-7-7-7------|      2x  
|-5-5-5-5-5-5-5-5-5-5-5-5-5-5-5-5------|
|-3-3-3-3-3-3-3-3----------------------|

Riff 4 (part 1)

"Have you ever...."
|--------------------------------------------------|
|--------------------------------------------------|
|--------------------------------------------------|
|----------------------12-11-12---12-11-12---------|
|---10-9-10---10-9-10--10-9--10---10-9--10---------|
|-0---------0-------------------0------------------|
 PM.................. 

Riff 4 (part 2)
[ Tab from: http://www.guitartabs.cc/tabs/o/offspring/have_you_ever_tab.html ]
|------------------------------------| Play all of riff
|------------------------------------| 4 (1&2).Play 2x
|-11-9-11----11-9-11-----------------|
|-0--0-0--00-0--0-0------------------|
|---------^^---------7-7-7-10-9--9-9-|
|---------^^---------5-5-5-8--7--7-7-|
        PM^^

Chorus Riff

"Well I kno-w..."
|-----------------------------------------|
|-----------------------------------------| play 4x 
|-----------------------------------------| for 
|-9-99-9-99-5-55-5-55-----------7-77-7-77-| chorus
|-7-77-7-77-3-33-3-33-5-55-5-55-5-55-5-55-|
|---------------------3-33-3-33-----------|

Then go back to riff 4 and play all of that 2 times.
After that play the chorus 6 times, then...

Closing chord 1

|---|  Count this chord 8 times, then 7, then 7 again
|---|  
|-9-|
|-x-|
|-7-|

then play this

|---|	The drums slowly fade in and so does the pick-
|---|   scratching (low to high). As the pick scratch 
|-x-|   gets louder, guitar 2 joins in and they both
|-2-|   scratch about to the bridge.
|-2-|
|-0-|

Then play riff 1 another 3 times getting progressively slower. Play 9 on E and A about 18 times and on the last
             7
one, pick it and slide all the way down the neck.  BUT DON'T PICK SLIDE!
The bass plays the solo and then you play this closing riff.

Closing Riff 1

|------------------------------------------------------|
|------------------------------------------------------|
|------------------------------------------------------|
|-9-9-9-9---------7-7-7-7-9-9-9-9-5-5-5-5-7-7----------|
|-7-7-7-7-5-5-5-5-5-5-5-5-7-7-7-7-3-3-3-3-5-5----------|
|---------3-3-3-3-----------------------------0-2-3-2-0|

Play that 7 times

Then play...

Closing Riff 2

|------------------------------------------------------|
|------------------------------------------------------|
|------------------------------------------------------|
|-5-5-5-5-7-7-----------5-5-5-5-7-7----------9-5-5-5-57|
|-3-3-3-3-5-5-----------3-3-3-3-5-5----------7-3-3-3-35|
|-------------0-2-3-2-0-------------0-2-3-2-0----------|

The last chord starts in to "Staring at the Sun"

I should have the lyrics to this song a little later so hang in there.

If you have any questions or would like to know the bass solo 'cause is sounds pretty cool on the guitar, then just e-mail me at Rmcsk8er@aol.com Thanx.
Comments