Offspring - Have You Ever Chords & Tabs

 

Have You Ever Chords & Tabs

Offspring Chords & Tabs

Version: 3 Type: Bass Tab 0 ratings
1 star 2 stars 3 stars 4 stars 5 stars
comments

Have You Ever Bass Tab

   
Song: Have You Ever
Artist: The Offspring
Album: Americana
Tabbed By: Ba$$ Lizard (CRoyale007@aol.com)
*Member Of The Bass Tab Archive Tabbing Army*
Previous Author: katie dirksmeier (email: 102660.2234@compuserve.com)


The original tab was correct*, but it was impossible to read at least
on my computer, so this may be better.

*except for the end of the verse

*INTRO A*

G:---------------
D:---------------
A:-7-------------
E:----0-0-0-0-0-0 


*INTRO B* (this is during the "Falling, I'm falling" part)

G:--------------------------------
D:--------------------------------
A:-7-7-7-7-7-7-7-7---------5-5-5-5
E:-----------------3-3-3-3--------


*VERSE*
[ Tab from: http://www.guitartabs.cc/tabs/o/offspring/have_you_ever_btab_ver_3.html ]
G:------------------------------------------------------------------
D:------------------------------------------------------------------
A:---------------------------------5-5-5-5-5-5-5-5-5----------------
E:-0-0-0-0-0-0-0-0-3-3-3-3-3-3-3-3-------------------5-5-5-8-7-7-7-7

*CHORUS*

G:--------------------------------
D:--------------------------------
A:-7-7-7-7-3-3-3-3---------5-5-5-5
E:-----------------3-3-3-3--------

*BRIDGE*

G:---------------------------------------------------------
D:---------------------------------------------------------
A:-7--7-7-7-7---------5-5-5-5-7-7-7-7-3-3-3-3-5-5----------
E:------------3-3-3-3-----------------------------0-2-3-2-0

*OUTRO*

G:----------------------------------
D:----------------------------------
A:-3-3-3-3-5-5-----------3-3-3-3-(5)
E:-------------0-2-3-2-0------------

()= Let Ring

Song Structure

INTRO A    6X  (on the last time repeat the last note many times)
INTRO B    2X
VERSE      2X
CHORUS     4X
VERSE      2X
CHORUS     6X  (Starting with the 5th time, gradually play softer)
         -BREAK WHILE THE DRUMS PLAY-
INTRO      6X   (Gradually slow down tempo)
BRIDGE     8X
OUTRO      1X   
Comments