Offspring - Gotta Get Away Chords & Tabs

 

Gotta Get Away Chords & Tabs

Offspring Chords & Tabs

Version: 2 Type: Tab 0 ratings
1 star 2 stars 3 stars 4 stars 5 stars
comments

Gotta Get Away Tab

Artist:Offspring
Song: Gotta Get Away
Tabbed by: John Leadman


 Riff 1:
 -------------------------------------------------
 --------8-----8--7--------5~~~~~~~~~~~~~~~~~~~~~-
 -(7)(7)-7-----7--7--------4~~~~~~~~~~~~~~~~~~~~~-
 -------------------------------------------------
 -------------------------------------------------
 -------------------------------------------------

 
 -------------------------------------------------
 --------8-----8--7-10-----5~~~~~~~~~~~~~~~~~~~~~-
 -(7)(7)-7-----7--7--7-----4~~~~~~~~~~~~~~~~~~~~~-
 -------------------------------------------------
 -------------------------------------------------
 -------------------------------------------------


 Riff 2: 
 -------------------------------------------------
 -------------------------------------------------
 --------7--7--------7--7--------9--9--------9--9-
 --------7--7--------7--7--------9--9--------9--9-
 --------5--5--------5--5--------7--7--------7--7-
 --0--0--------0--0--------0--0--------0--0-------


 -------------------------------------------------
 -------------------------------------------------
 -------12-12-------14-----9-----9-10--9-10--9----
 -------12-12-------14-----9-----9--9--9--9--9----
 -------10-10-------12-----7-----7--7--7--7--7----
 --0--0--------0--0-------------------------------

[ Tab from: http://www.guitartabs.cc/tabs/o/offspring/gotta_get_away_tab_ver_2.html ]
 Riff 2a: 
 -------------------------------------------------
 -------------------------------------------------
 --------7--7--------7--7--------9--9--------9--9-
 --------7--7--------7--7--------9--9--------9--9-
 --------5--5--------5--5--------7--7--------7--7-
 --0--0--------0--0--------0--0--------0--0-------
  \pm_/       \pm_/       \pm_/       \pm_/

 
 -------------------------------------------------
 -------------------------------------------------
 -------12-12-------14-----9-----9-10--9-10--9----
 -------12-12-------14-----9-----9--9--9--9--9----
 -------10-10-------12-----7-----7--7--7--7--7----
 --0--0--------0--0-------------------------------
  \pm_/       \pm_/



  Riff 3: 
 -------------------------------------------------
 -------------------------------------------------
 --9--9--9--9-------------12-12-12-12-------------
 --9--9--9--9-10-10-10-10-12-12-12-12-12-12-12-12-
 --7--7--7--7-10-10-10-10-10-10-10-10-12-12-12-12-
 --------------8--8--8--8-------------10-10-10-10-

 Riff 4:
 
 --0----------------------------------------------
 --0--Let ring!-----------------------------------
 --1----------------------------------------------
 --2----------------------------------------------
 --2----------------------------------------------
 --0----------------------------------------------

 2x 1           intro
 2x 2           pre-verse
 4x 2a          verse 1
 4x 3           chorus
 2x 2           pre-verse
 4x 2a          verse 2
 6x 3           chorus
 2x 1           intro
 2x 2           interlude
 8x 3           chorus
 1x 4           ending

Comments