Offspring - Gotta Get Away Chords & Tabs

 

Gotta Get Away Chords & Tabs

Offspring Chords & Tabs

Version: 1 Type: Bass Tab 1 rating
1 star 2 stars 3 stars 4 stars 5 stars
comments

Gotta Get Away Bass Tab

Song: Gotta Get Away
Artist: The Offspring
Album: Smash
Tabbed By: Ba$$ Lizard
*Member Of The Bass Tab Archive Tabbing Army*
Previous Author:Chris Houston (g93h7323@warthog.ru.ac.za)

The previous one was pretty close, but I thought I'd make it completely correct.
The actual song is a little simpler than the one presented in the old tab. This is a
fun and relatively easy song.


First note- E:-0-, then:

Intro (After drum intro)

G:-------------------------------
D:-------------------------------
A:-5-5-5-5-5-5-5---7-7----7-7----
E:---------------0-----0------0-0       Play 8X
[ Tab from: http://www.guitartabs.cc/tabs/o/offspring/gotta_get_away_btab.html ]
Then here's the main riff and the verse:

G:------------------------------------------------------------------
D:------------------------------------------------------------------
A:------5-5-----5-5-----7-7-----7-7-----10-10-----12-12--7-7-8-7-8-7
E:-0-0------0-0-----0-0-----0-0-----0-0-------0-0------------------- Play 6X, then

Chorus:

G:--------------------------------
D:-2-2-2--------------------------
A:-------2-3-3-3-3---------5-5-5-5
E:-----------------3-3-3-3--------   Play 4X, then

Play The Verse part 6X
Play The Chorus 6X
Play The Intro 4X
Play the Verse 2X
Play The Chorus 8X

End on E:-(5)-

()= Let ring

Comments