Offspring - Gone Away Chords & Tabs

 

Gone Away Chords & Tabs

Offspring Chords & Tabs

Version: 3 Type: Tab 2 ratings
1 star 2 stars 3 stars 4 stars 5 stars
comments

Gone Away Tab

   
#----------------------------------PLEASE NOTE---------------------------------#
#This file is the author's own work and represents their interpretation of the #
#song. You may only use this file for private study, scholarship, or research. #
#------------------------------------------------------------------------------#

Band: The Offspring
Song: Gone away
Tabbed by: Alex

Intro:

  2 Giri di sola batteria...

Chorus:

Guitar 1

e|-------------------------------------------------------------------------|
B|-------------------------------------------------------------------------|
G|-10-10-10-10-10-10-10-10-----------------8-8-8-8-8-8-8-8-----------------|
D|-10-10-10-10-10-10-10-10-6-6-6-6-6-6-6-6-8-8-8-8-8-8-8-8-8-8-8-8-8-8-8-8-|
A|-8--8--8--8--8--8--8--8--6-6-6-6-6-6-6-6-6-6-6-6-6-6-6-6-8-8-8-8-8-8-8-8-|
E|-------------------------4-4-4-4-4-4-4-4-----------------6-6-6-6-6-6-6-6-|2x

e|-------------|
B|-------------|
G|-------------|
D|-3====>------|
A|-3====>------|
E|-1====>------|

Then, while guitar 1 play the last note...

Guitar 2

e|--------------------------------------------------------|
B|--------------------------------------------------------|
G|---------10-------------8-----------8-------------------|
D|-8h10p8---------8h10p8------8h10p8--------8-8-8\10/3----|
A|--------------------------------------------------------|
E|--------------------------------------------------------|.


Chorus
        
        And it feels ...

Then play "Chorus" twice again ending on the 

e|-------------|
B|-------------|
G|-------------|
D|-3====>------|
A|-3====>------|
E|-1====>------|and let it ring..

Guitar 1

e|-----8----------6-------------6-------------\4-3-------|
B|---6----------4-------------4---------6---4------4-4\6-|
G|-5----------5-------------3-------------5--------------|
D|-------------------------------------------------------|
A|-------------------------------------------------------|
E|-------------------------------------------------------|
          I reach to the sky,     

[ Tab from: http://www.guitartabs.cc/tabs/o/offspring/gone_away_tab_ver_3.html ]
|-------8---------6----------------6------------------------|
|-6---6---------4----------------4--------------------------|
|---5---------5----------------3----------------------------|
|-------------------------------------------8-8-8-8-8-8-8-8-|
|-------------------------------------------8-8-8-8-8-8-8-8-|
|-------------------------------------------6-6-6-6-6-6-6-6-|
          And if I could trade,    .


Chorus (continue from "And it feels...")

        And it feels like,.....

Chorus is played twice again with all the "gone away yeah yeah..." stuff!


Bridge 2:

Guitar 1

e|---------------------------------------------|
B|---------------------------------------------|
G|-10-------10----8-------8--------------------|
D|-------10----10------10---10-8----8-8-10-----|
A|------------------------------------------8--|
E|---------------------------------------------|(durata del Chorus)

Guitar 2

e|-------------|
B|-------------|
G|-------------|
D|-3====>------|
A|-3====>------|
E|-1====>------|and let it ring...


Then...

Outro

Guitar 1

e|--------------------------------------------------------|
B|--------------------------------------------------------|
G|---------10-------------8-----------8-------------------|
D|-8h10p8---------8h10p8------8h10p8--------8-8-8-10==>---|
A|--------------------------------------------------------|
E|--------------------------------------------------------|
                                                         From about here do 
Guitar 2                             the  'woah's and 'yeah' stuff again :)

e|-----------------------------------------------------------------------------------|
B|-----------------------------------------------------------------------------------|
G|-----------------------------------------------------------------------------------|
D|---------------------------------------------------8-8-8-8-8-8-8-8-8-8-8-8-8-8-8-8-|
A|---------------------------------------------------8-8-8-8-8-8-8-8-8-8-8-8-8-8-8-8-|
E|---------------------------------------------------6-6-6-6-6-6-6-6-6-6-6-6-6-6-6-6-|


Playing Chorus twice (the voice shout some stuff!)

Playing Bridge 1

Chorus is played twice again with all the "gone away yeah yeah..." stuff!

Ending on

e|-------------|
B|-------------|
G|-------------|
D|-3====>------|
A|-3====>------|
E|-1====>------|and let it ring
Comments