Offspring - Gone Away Chords & Tabs

 

Gone Away Chords & Tabs

Offspring Chords & Tabs

Version: 1 Type: Tab 1 rating
1 star 2 stars 3 stars 4 stars 5 stars
comments

Gone Away Tab

GONE AWAY by THE OFFSPRING from IXNAY ON THE HOMBRE (1997)
This was the Ixnay´s 2nd single and this one rocks! It´s great to play this one
with a drummer and with a bassists.
This Tab is fuckin´ accurate - and easy to learn!


You´ve to tune your guitar down so that "F" is the main note.

Notes:
* = play this 8 times
# = let ring


=Main Riff=  X2		=Main Chord"  X1		
|----------------------------|	|---------------------------------------------------------|
|----------------------------|	|---------------------------------------------------------|
|--9*--12*----------------| and then	|--9#---------------------------------------------------|
|--9*--12*--12*--7*----|   ------->	|--9#---------------------------------------------------|
|--7*--10*--12*--7*----|	|--7#---------------------------------------------------|
|--------------10*--5*----|	|---------------------------------------------------------|


=Pre-Verse Solo=  X1
|-------------0-------------------------------------------------------------------------|
|----------------------------------------------------------------------------------------|
|--2--4-----------------------7---------------7#--9--6-----------------------------|
|---------2--------4--5--0--------2--4--0---------------7--9---------------------|
|---------------------------------------------------------------------7#----------------|
|---------------------------------------------------------------------------------------|


"Maybe in another life.....
I can deal, it´s so unfair"


Then play
=Main Riff=  X4
=Main chord=  X1


"Leaving flowers on your grave.....
Can´t bring back, what´s taken from me"


=Verse-Solo 1=  X1 / play this when Dexter begins to sing "I reach to sky..."
|-------------------------------------------------------------------------------------|
|--------0---------------------------------------------------------------------------|
|---------------------2----------2------------0--4----0--2-----------------------|
|-------------------------------------------------------------------------------------|
|------2----------2----------0-----------2-----------------------------------------|
|--0---------3----------2-----------0----------------------------------------------|

[ Tab from: http://www.guitartabs.cc/tabs/o/offspring/gone_away_tab.html ]
=Verse-Solo 2=  X1 / play this when Dexter sings "And if I could trade..."
|-----------------------------------------------------------------------------------------|
|--------0-------------------------------------------------------------------------------|
|---------------------2----------2------------------------------------------------------|
|-------------------------------------7*-------------------------------------------------|
|------2----------2----------0------7*-------------------------------------------------|
|--0---------3----------2-----------5*-------------------------------------------------|


Then play
=Main Riff=  X4


=Bridge=  X1
|--0---------------3----------------2----2-2-0----0-------------------------------------|
|--0---------------3----------------3---------------2-------------------------------------|
|--1---------------0----------------2---------------2-------------------------------------|
|--2---------------0----------------0---------------2----2-2-0--------------------------|
|--2---------------2---------------------------------0-------------------------------------|
|--0----0-0-0----3----3-3-3------------------------------------------------------------|


=Post-Bridge Solo=  X1
|-------------0------------------------------------------------------------------------|
|---------------------------------------------------------------------------------------|
|--2--4-----------------------7---------------7#--9--6#--------------------------|
|---------2--------4--5--0--------2--4--0-----------------------------------------|
|---------------------------------------------------------------------------------------|
|---------------------------------------------------------------------------------------|


Then play
=Main Riff=  X2
=Verse-Solo 1=  X1
=Verse-Solo 2=  X1
=Main Riff=  X4


=End=  X1
|-------------------------------------------------------------------------------------|
|-------------------------------------------------------------------------------------|
|--9*--12*------------------9#----------------------------------------------------|
|--9*--12*--12*--7*-7*--9#----------------------------------------------------|
|--7*--10*--12*--7*-7*--7#----------------------------------------------------|
|--------------10*--5*-5*----------------------------------------------------------|


This was cool! I hope ya enjoyed playing the RIGHT version of this song!
Send your comments about this Tab to "ali.germany2000@freenet.de"

Tabbed by: Ali_A (5th March 2001)
Thanks to: JohnnyC and Wolf Marshall
Comments