Offspring - Gone Away Chords & Tabs

 

Gone Away Chords & Tabs

Offspring Chords & Tabs

Version: 2 Type: Bass Tab 0 ratings
1 star 2 stars 3 stars 4 stars 5 stars
comments

Gone Away Bass Tab

Gone away
offspring
Enemy Offline

Intro/chours
|---------------------------------------------------------------------|
|---------------------------------------------------------------------|
|-8-8-8-8-8-8-8-8-8-----------------6-6-6-6-6-6-6-6-------------------|
|-------------------4-4-4-4-4-4-4-4-----------------6-6-6-6-6-6-6-6-6-|
[ Tab from: http://www.guitartabs.cc/tabs/o/offspring/gone_away_btab_ver_2.html ]
verse 
|---------------------------------------------------------------------|
|---------------------------------------------------------------------|
|----------------------------------6-6-6-6-6-6-6-6--------------------|
|-1-1-1-1-1-1-1-1-1--4-4-4-4-4-4-4------------------6-6-6-6-6-6-6-6-6-|

thats it 

what???????? you don't believe me???????????
i said thats it 
well mabye it have some other parts that i dont know
Comments