Offspring - Get It Right Chords & Tabs

 

Get It Right Chords & Tabs

Offspring Chords & Tabs

Version: 4 Type: Tab 0 ratings
1 star 2 stars 3 stars 4 stars 5 stars
comments

Get It Right Tab

      ------------------------------------------------------------
                       Get It Right - The Offspring           
      ------------------------------------------------------------




 * - p.m (palm mute)
 : - let ring
 . - pause




+ Guitars - Dexter Holland
          - Noodles

   


+ Intro
e|---------------------------------------------------------------------------|
B|---------------------------------------------------------------------------|
G|------10-10-10-10--12-13-12--8-8-8-8--12-13-12--6-6-6-6--8-13-12--10-------|
D|--3:--10-10-10-10--12-13-12--8-8-8-8--12-13-12--6-6-6-6--8-13-12--10-(x2)--|
A|--3:---8--8--8--8--10-11-10--6-6-6-6--10-11-10--4-4-4-4--6-11-10---8-------|
E|--1:-----------------------------------------------------------------------|



+ I've been told that to get what you want...
e|-------------------------------|
B|-------------------------------|
G|--101010-888-666-88-1010-------|
D|--101010-888-666-88-1010-(x2)--|
A|---8-8-8-666-444-66--8-8-------|
E|-------------------------------|
    **********************



+ Tomorrow comes and things... 
e|------------------------------|
B|------------------------------|
G|--101010:-888:-66-88-101010:--|
D|--101010:-888:-66-88-101010:--|
A|---8-8-8:-666:-44-66--8-8-8:--|
E|------------------------------|



e|-------------------------|
B|-------------------------|
G|--101010:-888:-66--------|
D|--101010:-888:-66-66-88--|
A|---8-8-8:-666:-44-66-88--|
E|------------------44-66--|



+ Still can't get it right...
e|------------------------------|
B|------------------------------|
G|--1010-13-1212---------8:-----|
D|--1010-13-1212-10-(x3)-8:-88--|
A|---8-8-11-1010-10------6:-88--|
E|----------------8---------66--|


e|-----------------------------------------------------------------------|
B|-----------------------------------------------------------------------|
G|--10-10-10-10--12-13-12--8-8-8-8--12-13-12--6-6-6-6--8-13-12--10-------|
D|--10-10-10-10--12-13-12--8-8-8-8--12-13-12--6-6-6-6--8-13-12--10-(x2)--|
A|---8--8--8--8--10-11-10--6-6-6-6--10-11-10--4-4-4-4--6-11-10---8-------|
E|-----------------------------------------------------------------------|

[ Tab from: http://www.guitartabs.cc/tabs/o/offspring/get_it_right_tab_ver_4.html ]
+ Do you think you'd sell your soul...
e|-------------------------------|
B|-------------------------------|
G|--101010-888-666-88-1010-------|
D|--101010-888-666-88-1010-(x2)--|
A|---8-8-8-666-444-66--8-8-------|
E|-------------------------------|
    **********************



+ Like Holden Caulfield, I tell myself...
e|------------------------------|
B|------------------------------|
G|--101010:-888:-66-88-101010:--|
D|--101010:-888:-66-88-101010:--|
A|---8-8-8:-666:-44-66--8-8-8:--|
E|------------------------------|



+ Then I lay in bed and stare at the ceiling...
e|-------------------------|
B|-------------------------|
G|--101010:-888:-66--------|
D|--101010:-888:-66-66-88--|
A|---8-8-8:-666:-44-66-88--|
E|------------------44-66--|



+ Still can't get it right...
e|-------------------------------|
B|-------------------------------|
G|--1010-13-1212----------8:-----|
D|--1010-13-1212-10--(x3)-8:-88--|
A|---8-8-11-1010-10-------6:-88--|
E|----------------8----------66--|



+ No way out...
e|------------------------------------------|
B|------------------------------------------|
G|--8888-6666----------8888-6666-3333-5555--|
D|--8888-6666-3333333--8888-6666-3333-5555--|
A|--6666-4444-3333333--6666-4444-1111-3333--|
E|------------1111111-----------------------|



e|-----------------------------------------------------------------------|
B|-----------------------------------------------------------------------|
G|--10-10-10-10--12-13-12--8-8-8-8--12-13-12--6-6-6-6--8-13-12--10-------|
D|--10-10-10-10--12-13-12--8-8-8-8--12-13-12--6-6-6-6--8-13-12--10-(x2)--|
A|---8--8--8--8--10-11-10--6-6-6-6--10-11-10--4-4-4-4--6-11-10---8-------|
E|-----------------------------------------------------------------------|



+ No way out...No way out...
e|-----------------------|
B|-----------------------|
G|--10:-8:-6-8-10:-------|
D|--10:-8:-6-8-10:-(x2)--|
A|---8:-6:-4-6--8:-------|
E|-----------------------|



+ Get it right now (No way out)...
e|------------------------------|
B|------------------------------|
G|--101010:-888:-66-88-101010:--|
D|--101010:-888:-66-88-101010:--|
A|---8-8-8:-666:-44-66--8-8-8:--|
E|------------------------------|



+ Still can't get it right...
e|------------------------------|
B|------------------------------|
G|--1010-13-1212---------8:-----|
D|--1010-13-1212-10-(x3)-8:-88--|
A|---8-8-11-1010-10------6:-88--|
E|----------------8---------66--|



+ Never, never, never
e|------------------------|
B|------------------------|
G|--6.6.6.6.-8.8.8.8.-----|
D|--6.6.6.6.-8.8.8.8.-3:--|
A|--4.4.4.4.-6.6.6.6.-3:--|
E|--------------------1:--|




+ Tabber

+ Felipe Silva
+ Santiago, Chile
+ 15

+ pipe_@walla.com
Comments