Offspring - Get It Right Chords & Tabs

 

Get It Right Chords & Tabs

Offspring Chords & Tabs

Version: 2 Type: Tab 0 ratings
1 star 2 stars 3 stars 4 stars 5 stars
comments

Get It Right Tab

Offspring - Get It Right ( RAre Demo)
# start #
E-------|
B-------|
G-------|   then do some hard scrap-off!
D---3---|
A---3---|
E---1---|
:
# intro #    X 2     (play fast)     *=play 8X
E--------------------------------------------------------------------|
B----------------------------------------------------------------*---|
G--10-10-10-10--12-13-12--8-8-8-8--12-13-12--6-6-6-6--8-13-12--10----|
D--10-10-10-10--12-13-12--8-8-8-8--12-13-12--6-6-6-6--8-13-12--10----|
A---8--8--8--8--10-11-10--6-6-6-6--10-11-10--4-4-4-4--6-11-10---8----|
E--------------------------------------------------------------------|
:
# verse #   X 2    *=play 7X           # verse2 #  *=play 4X    
E---------------------------------|    E---------------------------------|
B----*---*---------------------*--|    B----*---*---------------------*--|
G--10---8---6-6-6-6--8-8-8-8-10---|    G--10---8---6-6-6-6--8-8-8-8-10---|
D--10---8---6-6-6-6--8-8-8-8-10---|    D--10---8---6-6-6-6--8-8-8-8-10---|
A---8---6---4-4-4-4--6-6-6-6--8---|    A---8---6---4-4-4-4--6-6-6-6--8---|   
E---------------------------------|    E---------------------------------|
:  \________palm-mute_________/
:
# verse3 #      *=play 4X              
E---------------------------------|    
B----*---*---------------------*--|    
G--10---8---6-6-6-6--3-3-3-3--5---|
D--10---8---6-6-6-6--3-3-3-3--5---|
A---8---6---4-4-4-4--1-1-1-1--3---|
E---------------------------------|
:
# chorus #    X 3                                       # end-chorus #
E--------------------------------------------|          E-------|
B--------------------------------------------|          B-------|
G--10-10-10/13--13-13-13-13--8-8-8-----------|          G---6---|
D--10-10-10/13--13-13-13-13--8-8-8-8-8-8-8---|          D---6---|
A---8--8--8/11--11-11-11-11--6-6-6-8-8-8-8---|          A---4---|
E----------------------------------6-6-6-6---|          E-------|
:
Play intro, verse, verse2, verse3, chorus and end-chorus.
:
# bridge #  (No way out!...)                        # bridge2 #   X 2
E--------------------------|                        E------------------|
B--------------------------|                        B------------------|
G---8--6------8--6--3--5---|   > play intro >       G--10--8--6-8-10---|
D---8--6--3---8--6--3--5---|                        D--10--8--6-8-10---|
A---6--4--3---6--4--1--3---|                        A---8--6--4-6--8---|
E---------1----------------|                        E------------------|
:
Play verse2 X2, chorus and end-chorus.
:
# outro #
E-------------------------|
B-------------------------|
G---6-6-6-6--8-8-8-8------|    
D---6-6-6-6--8-8-8-8--3---|     
A---4-4-4-4--6-6-6-6--3---|
E---------------------1---| 
[ Tab from: http://www.guitartabs.cc/tabs/o/offspring/get_it_right_tab_ver_2.html ]
Comments