Offspring - Get It Right Chords & Tabs

 

Get It Right Chords & Tabs

Offspring Chords & Tabs

Version: 1 Type: Bass Tab 0 ratings
1 star 2 stars 3 stars 4 stars 5 stars
comments

Get It Right Bass Tab

These are the tabs for this song.
GET IT RIGHT!!!!

G:----------------------|------------------------------|
D:---3>-6>-1>-----------|-----1>-2---------------------|
A:-----------3>---------|---4>-------------------------|
E:----------------------|------------------------------|

Intro x2

Verse x2

Chorus x3 (only first part, then bridge)

Bridge
[ Tab from: http://www.guitartabs.cc/tabs/o/offspring/get_it_right_btab.html ]
G:----------------------------------------|
D:---1>-----------1>----------------------|
A:-------4>--0>-------4>--1>--3>----------|
E:----------------------------------------|

Intro  x2

Verse2 x4

G:----------------------------------------|
D:---3---1-------1---3--------------------|
A:-----------4----------------------------|
E:----------------------------------------|

Chorus 			x3

G:----------------------|------------------------------|
D:---3>-6>-1>-----------|-----------1-1-1-1-2----------|
A:-----------3>---------|---4-4-4-4--------------------|
E:----------------------|------------------------------|

That's about it!

Enjoy!

By Lemonidas
Comments